BANGALORE DAYS - Thudakkam Maangalyam (Full Tabs)

This song is from the malayalam movie "Bangalore Days"(2014).
You can find the chords and lyrics of this song: Thudakkam Maangalyam Chords and Lyrics

Song Rating: 9/10
What do you think about this song? Comment below.
Requested By Nasheed
Scale: D Minor
Time Signature: 4/4
Tempo: 120

[INTRO LEAD]
e|---------------------------------------------------------8-6-8-6-5---5-----|
B|-3/6-6-8\6-6-6-6-6-6--3/6-6-8\6-6-6-6-6--3/6-6-8\6-6-6-6-----------8-------
G|---------------------------------------------------------------------------|
D|---------------------------------------------------------------------------|
A|---------------------------------------------------------------------------|
E|---------------------------------------------------------------------------| x2

[VERSE 1]
e|5-3-5-3-5-3-5-3-5----------------------3-----------------------------------|
B|---------------------6-3-6-3-6-3-6-3-6-------------------------------------|
G|---------------------------------------------------------------------------|
D|---------------------------------------------------------------------------|
A|---------------------------------------------------------------------------|
E|---------------------------------------------------------------------------|
  Pachakilikkoru koodu Pacha karimbazhakulla koodu  x2

e|7-7-----7-7-10-8--------5-6-5-------7-7-----7-7-10-8-----------------------|
B|----8-8-----------------------8---------8-8--------------------------------|
G|---------------------------------------------------------------------------|
D|---------------------------------------------------------------------------|
A|---------------------------------------------------------------------------|
E|---------------------------------------------------------------------------|
  Kannalan kettunnundallo   ohoh      Athu ninne koottanaanallo

  [CHORUS]
e|------8-10-8-----------8---------------8-10-8----------8-------------------|
B|10-10--------10-----10---10-8-6\5---10--------10----10---10-6-8------------|
G|---------------------------------------------------------------------------|
D|---------------------------------------------------------------------------|
A|---------------------------------------------------------------------------|
E|---------------------------------------------------------------------------|
  Thudakkam mangalyam than thananena  Pinne jeevitham thumthananena   x3
  
[INTRO LEAD x2]

[VERSE 2]
e|5-5-5-3-5-5-5----------3-5-3-----5-3-3-------------------------------------|
B|-----------------------------6-6-------------------------------------------|
G|---------------------------------------------------------------------------|
D|---------------------------------------------------------------------------|
A|---------------------------------------------------------------------------|
E|---------------------------------------------------------------------------|
  Kaniyalle kanmaniyalle Aadhyam chollum ninkanavan

e|--------------5-3-3--------------------------------------------------------|
B|6-6-5-3-6-6-6--------------------------------------------------------------|
G|---------------------------------------------------------------------------|
D|---------------------------------------------------------------------------|
A|---------------------------------------------------------------------------|
E|---------------------------------------------------------------------------|
  Kanna nee veyil kollalle neeyum chollum

e|5-5-5-3-5-5-5----------3-5-3-----5-3-3----------------8-8------------------|
B|----------------------------------------------------------6-6-6-6-6--------|
G|---------------------------------------------------------------------------|
D|---------------------------------------------------------------------------|
A|---------------------------------------------------------------------------|
E|---------------------------------------------------------------------------|
  kadhamaarum chekavanaakum urumiyedukkum padaveeran Hai  pinnothirakadakam

[INTRO LEAD x2]

e|8-8-5-8-8-------5-5-8-10-10-8-8--------------------------------------------|
B|---------------------------------------------------------------------------|
G|---------------------------------------------------------------------------|
D|---------------------------------------------------------------------------|
A|---------------------------------------------------------------------------|
E|---------------------------------------------------------------------------|
 Ketto, nee ketto ee koottil pettal pinne

e|3-5-3-5-3-5-3-5-1-3-5-5-3--------------------------------------------------|
B|---------------------------------------------------------------------------|
G|---------------------------------------------------------------------------|
D|---------------------------------------------------------------------------|
A|---------------------------------------------------------------------------|
E|---------------------------------------------------------------------------| x2
  Neelaakasham kandorillannaro chollunne
  
e|--------------3-------------------3-----------3----------------------------|
B|3-6-6-6-3-6-6--6------------3-6-6---6---3-6-6---6--------------------------|
G|---------------------------------------------------------------------------|
D|---------------------------------------------------------------------------|
A|---------------------------------------------------------------------------|
E|---------------------------------------------------------------------------|
  Midukkiye merukki thali kurukkilakki    kurumbothokki

e|--------------3----------------8-6-8-5-6-3-5-1-1-1-------------------------|
B|3-6-6-6-3-6-6--6-------------6---------------------------------------------|
G|---------------------------------------------------------------------------|
D|---------------------------------------------------------------------------|
A|---------------------------------------------------------------------------|
E|---------------------------------------------------------------------------| x2
  Thadankalil thalachu kaanan manassilumoru kothiyundallo

[CHORUS]
[VERSE 1]
[CHORUS x6]
************************************

| /   slide up
| \   slide down

************************************

No comments:

Post a Comment