BILLIE EILISH - I Love You Chords and Lyrics

This song is from the album WHEN WE ALL FALL ASLEEP, WHERE DO WE GO?(2019), released on 29 March 2019.


Vocals: Billie Eilish ,
Producer(s): FINNEAS,
Writer(s): Billie Eilish , FINNEAS,

SongRating: 10/10

Requested By Emma Marchiony
Scale: A Minor
Time Signature: 4/4
Tempo: 70
Suggested Strumming: DU,DU,DU,DU
c h o r d  z o n e . o r g
[INTRO]

E|--------|-----------0-----------------0-------|----------0-----------------0--------|
B|--------|--0-----------------0----------------|-0-----------------0-----------------|
G|-----2--|--------2--------2--------2--------2-|-------2--------2--------2--------2--|
D|--3-----|-----3--------3--------3--------3----|----3--------3--------3--------3-----|
A|--------|-------------------------------------|-------------------------------------|
E|--------|-------------------------------------|-------------------------------------|
  
E|-----------0-----------------0-------|----------0-----------------0--------|
B|--0-----------------0----------------|-0-----------------0-----------------|
G|--------0--------0--------0--------0-|-------0--------0--------0--------0--|   
D|-----2--------2--------2--------2----|----2--------2--------2--------2-----|
A|--3----------------------------------|-------------------------------------|
E|-------------------------------------|-------------------------------------|


Fmaj7 Cmaj7

[VERSE 1]
      Fmaj7
It's not true
                  Cmaj7
Tell me I’ve been lied to
              Fmaj7      Cmaj7
Crying isn't like you, ooh

                  Fmaj7
What the hell did I do?
                Cmaj7
Never been the type to
                   Fmaj7         Cmaj7
Let someone see right through, ooh
 
www.chordzone.org

[CHORUS]
F                 
Maybe won't you take it back?
      
Say you were tryna make me laugh
      G
And nothing has to change today
G                               Am
You didn’t mean to say "I love you"
         Dm                 F    C
I love you and I don't want to, ooh
 
[VERSE 2]
   F                     C
Up all night on another red-eye
   F                         C
I wish we never learned to fly
                   F
Maybe we should just try
                     C
To tell ourselves a good lie
                F         C
Didn't mean to make you cry
 
www.chordzone.org

[CHORUS]
F                 
Maybe won't you take it back?
      
Say you were tryna make me laugh
      G
And nothing has to change today
G                               Am
You didn’t mean to say "I love you"
         Dm                 F    C
I love you and I don't want to, ooh
 
[BRIDGE]
     Dm
The smile that you gave me
       Em                   F
Even when you felt like dying
 
[OUTRO]
  F
We fall apart as it gets dark

I'm in your arms in Central Park
         G
There's nothing you could do or say
                               Am
I can’t escape the way I love you
          Dm                 F        C
I don’t want to, but I love you, ooh
      F
Ooh, ooh
     C
Ooh, ooh

Found any corrections in the chords or lyrics? Please leave a comment below.

No comments:

Post a Comment

FB Twitter