Now Reading
BILLIE EILISH – My Future Guitar Tabs

BILLIE EILISH – My Future Guitar Tabs

Enable Light Mode
#
A+
A-

This single was released on 30 July 2020. It is originally in the key of Eb Major. You can change it to any key you want, using the Transpose option. The average tempo is 55 BPM. These chords are simple and easy to play on the guitar or piano. You can play the lead notes using the guitar tabs given below. Watch the video for the piano tutorial along with the guitar tabs.
Vocals: Billie Eilish ,
Producer(s): FINNEAS,
Writer(s): Billie Eilish , FINNEAS,

 
Original Key: Eb Major
Time Signature: 4/4
Tempo: 55
Suggested Strumming: DU,DU,DU,DU
c h o r d  z o n e . o r g

E |-------|----------------------------|-----1L-1-------------------|
B |-------|----------------------------|-----------------1L-1-------|
G |-------|--3-----------3-----5--7L---|--7-----------3-------------|
D |-------|----------------------------|----------------------------|
A |-------|----------------------------|----------------------------|
E |-------|----------------------------|----------------------------|


----------------------------|-----1L-1--------1L-1-------|----------------|
--------------------1L-2L1--|--2-----------4-------------|--1--4L---------|
--3-----------3-------------|----------------------------|----------------|
----------------------------|----------------------------|----------------|
----------------------------|----------------------------|----------------|
----------------------------|----------------------------|----------------|


--------------------1L-1----|----------------------------|-------|
--4-----4-----4--------0L---|--0L-0----------------------|-------|
----------------------------|-----8L-8L------------------|--8----|
----------------------------|----------------------------|-------|
----------------------------|----------------------------|-------|
----------------------------|----------------------------|-------|


 www.chordzone.org
----------------------------|----------------------------|
-----------------------3L---|--3--6L-6--------1L-1-------|
--3-----------3-----5L-5----|--------------3-------------|
----------------------------|----------------------------|
----------------------------|----------------------------|
----------------------------|----------------------------|


----------------------------|-----1L-1-------------------|
-----------------------2L---|--2-----------4-----2L-2----|
--3-----------3-----5L-5----|-----------------------5L---|
----------------------------|----------------------------|
----------------------------|----------------------------|
----------------------------|----------------------------|


----------------------------|----------------|-----1L-1L-1----------------|
-----4L-4L------------------|--4--4--4L------|--4--------0L-0L------------|
--5L-5----------------------|----------------|----------------------------|
----------------------------|----------------|----------------------------|
----------------------------|----------------|----------------------------|
----------------------------|----------------|----------------------------|


-------|--3--1----|--4--3----|-----3-----3----|-------|
--0----|----------|----------|--4-----3-------|--1L---|
-------|----------|----------|----------------|-------|
-------|----------|----------|----------------|-------|
-------|----------|----------|----------------|-------|
-------|----------|----------|----------------|-------|


----------------------------------------------------|
--1L----------------------1L----------1--------3----|
--------------------------------------------5L-5----|
----------------------------------------------------|
----------------------------------------------------|
----------------------------------------------------|


----------------------------|----------------------------|
--4--3----------------------|-----------------------4----|
--------5L------------------|--5L----------5L-------5----|
----------------------------|----------------------------|
----------------------------|----------------------------|
----------------------------|----------------------------|


----------------------------|----------------|
--4-----------------0--0L---|--0--------4----|
----------------------------|----------------|
----------------------------|----------------|
----------------------------|----------------|
----------------------------|----------------|


----------------------------------------------------|
--3L----3L-3-----3L-3--3L-3L------------------------|
--------5--3--5L-5--5L-5----------------------------|
----------------------------------------------------|
----------------------------------------------------|
----------------------------------------------------|

 www.chordzone.org
----------------------------|-------|-----------------1L-1-------|
--3-----------3--3L-3-------|--2L---|--2-----------4-------------|
----------------------------|-------|----------------------------|
----------------------------|-------|----------------------------|
----------------------------|-------|----------------------------|
----------------------------|-------|----------------------------|


--3L-------3----------------|--------------------1--2L---|
-----------1L-1L------------|--1-----4-----4-------------|
----------------------------|----------------------------|
----------------------------|----------------------------|
----------------------------|----------------------------|
----------------------------|----------------------------|


--2-------------------------|-----1L-1-------------------|
-----4L-4L----------4--6----|--4-----------------4-------|
----------------------------|----------------------------|
----------------------------|----------------------------|
----------------------------|----------------------------|
----------------------------|----------------------------|


----------------------------------------------------|
--3L----3L-3-----3L-3--3L-3L------------------------|
--------5--3--5L-5--5L-5----------------------------|
----------------------------------------------------|
----------------------------------------------------|
----------------------------------------------------|


----------------------------------------------------|
--3-----------------------3-----3L----3-------------|
----------------------------------------------------|
----------------------------------------------------|
----------------------------------------------------|
----------------------------------------------------|


----------------------------|
--2-----------------4--6----|
----------------------------|
----------------------------|
----------------------------|
----------------------------|


--------------------------------------------------------3--------4----------|
-----------4L-------4L-------4--------4--------6----------------------------|
----------------------------------------------------------------------------|
----------------------------------------------------------------------------|
----------------------------------------------------------------------------|
----------------------------------------------------------------------------|


--1--------3L-------3-------------------------------------------------------|
--------------------------------------------------------1--------4L---------|
----------------------------------------------------------------------------|
----------------------------------------------------------------------------|
----------------------------------------------------------------------------|
----------------------------------------------------------------------------|


----------------------------------------------------------------------------|
--4L----------------4--------1--------4L-------4L-4-----4--------6----------|
-----------------------------------------------5----------------------------|
----------------------------------------------------------------------------|
----------------------------------------------------------------------------|
----------------------------------------------------------------------------|


--2--1----------------------|----------------||
-----------4L-4-----6--4L---|--4-------------||
----------------------------|----------------||
----------------------------|----------------||
----------------------------|----------------||
----------------------------|----------------||
 

Recommended for you:


Click to rate this post!
[Total: 0 Average: 0]