Now Reading
BLACKPINK feat SELENA GOMEZ – Ice Cream Guitar Tabs

BLACKPINK feat SELENA GOMEZ – Ice Cream Guitar Tabs

Enable Light Mode
#
A+
A-

This single was released on 28 August 2020. It is originally in the key of E Major. You can change it to any key you want, using the Transpose option. The average tempo is 80 BPM. These chords are simple and easy to play on the guitar or piano.

Click here for the chords and lyrics version

 
Original Key: E Major
Time Signature: 4/4
Tempo: 80
Suggested Strumming: DU,DU,DU,DU
c h o r d  z o n e . o r g
  
E |-----0--0-------------------|
B |--3--------3--3--1--1--3----|
G |----------------------------|
D |----------------------------|
A |----------------------------|
E |----------------------------|


--3-------------------------|-----0--0-------------------|
-----------1--3-----1-------|--3--------3--3--1--1--3----|
----------------------------|----------------------------|
----------------------------|----------------------------|
----------------------------|----------------------------|
----------------------------|----------------------------|


--3-------------------------|----------------------------|
-----------1--3-----1-------|--1-----1-----1-----1-------|
----------------------------|-----------------2-----2----|
----------------------------|----------------------------|
----------------------------|----------------------------|
----------------------------|----------------------------|


----------------------------|----------------------------|
--1-----1-----1-----1-------|--1-----1-----1-----1-------|
-----------------2-----2----|-----------------2-----2----|
----------------------------|----------------------------|
----------------------------|----------------------------|
----------------------------|----------------------------|

 www.chordzone.org
 
----------------------------|-----0--0-------------------|
--1--1--1--1--1-------------|--3--------3--3--1--1--3----|
-----------------2----------|----------------------------|
----------------------------|----------------------------|
----------------------------|----------------------------|
----------------------------|----------------------------|


--3-------------------------|-----0--0-------------------|
-----------1--3-----1-------|--3--------3--3--1--1--3----|
----------------------------|----------------------------|
----------------------------|----------------------------|
----------------------------|----------------------------|
----------------------------|----------------------------|


--3-------------------------|----------------------------|
-----------1--3-----1-------|--1-----1-----1-----1-------|
----------------------------|-----------------2-----2----|
----------------------------|----------------------------|
----------------------------|----------------------------|
----------------------------|----------------------------|


----------------------------|----------------------------|
--1-----1-----1-----1-------|--1-----1-----1-----1-------|
-----------------2-----2----|-----------------2-----2----|
----------------------------|----------------------------|
----------------------------|----------------------------|
----------------------------|----------------------------|


----------------------------|-----0--0--3----|--3--8--8-------|-----0--0--3----|
--1-----1-----1-------------|--1-------------|----------------|--1-------------|
-----------------2----------|----------------|----------------|----------------|
----------------------------|----------------|----------------|----------------|
----------------------------|----------------|----------------|----------------|
----------------------------|----------------|----------------|----------------|


--3-------------|--------------0-------------|--------0-------------------|
-----1--1-------|--1--1--1--1--------3-------|--3--3--------1-------------|
----------------|----------------------------|----------------------------|
----------------|----------------------------|----------------------------|
----------------|----------------------------|----------------------------|
----------------|----------------------------|----------------------------|


--------------0-------------|--------0-------------------|-----0--0--3----|
--1--1--1--1--------3-------|--3--3--------1-------------|--1-------------|
----------------------------|-----------------2L-2-------|----------------|
----------------------------|----------------------------|----------------|
----------------------------|----------------------------|----------------|
----------------------------|----------------------------|----------------|


--3--8--8-------|-----0--0--3----|--3-------------|--------------0-------------|
----------------|--1-------------|-----1--1-------|--1--1--1--1--------3-------|
----------------|----------------|----------------|----------------------------|
----------------|----------------|----------------|----------------------------|
----------------|----------------|----------------|----------------------------|
----------------|----------------|----------------|----------------------------|


--------0-------------------|--------------0-------------|
--3--3--------1-------------|--1--1--1--1--------3-------|
----------------------------|----------------------------|
----------------------------|----------------------------|
----------------------------|----------------------------|
----------------------------|----------------------------|

 www.chordzone.org
--------0-------------------|--0-------------------------|
--3--3--------1-------------|--------1-------------------|
-----------------2L-2-------|--------------2--2--0--0----|
----------------------------|----------------------------|
----------------------------|----------------------------|
----------------------------|----------------------------|


--0-----------0-------------|
--------1--------1L-1-------|
----------------------------|
----------------------------|
----------------------------|
----------------------------|


--0-------------------------------------------------|
--------------1-------------------------------------|
--------------------------2-----2-----0-----0-------|
----------------------------------------------------|
----------------------------------------------------|
----------------------------------------------------|


--0-----------------------0-------------------------||
--------------1-----------------1-------------------||
----------------------------------------------------||
----------------------------------------------------||
----------------------------------------------------||
----------------------------------------------------||


Recommended for you:


Click to rate this post!
[Total: 1 Average: 5]

To The Top Get The Guitar Tabs

See Also