Now Reading
KING FISH – En Raamazhayil Guitar Tabs
KING FISH - En Raamazhayil Chords and Lyrics

KING FISH – En Raamazhayil Guitar Tabs

Enable Light Mode
#
A+
A-

This song is from the movie King Fish(2019), released on 09 November 2019 starring Anoop Menon, Renjith, Nandhu, Niranjana Anoop & Divya S Pillai. The vocals are by Vijay Yesudas. The music is produced by Ratheesh Vega and the lyrics are written by Anoop Menon.
It is originally in the key of F Minor. You can change it to any key you want, using the Transpose option. The average tempo is 133 BPM. These chords are simple and easy to play on the guitar or piano.
Vocals: Vijay Yesudas,
Producer(s): Ratheesh Vega,
Writer(s): Anoop Menon,

Click here for the chords and lyrics version

 
Original Key: F Minor
Time Signature: 3/4
Tempo: 133
Suggested Strumming: DU,DU,DU
c h o r d  z o n e . o r g
  

E |--7--5--3--0L-0L------|
B |----------------------|
G |----------------------|
D |----------------------|
A |----------------------|
E |----------------------|


--0L-------0-----------------------------------0----------|--3--5L------|
--------------------------------------3-------------------|-------------|
----------------------------------------------------------|-------------|
----------------------------------------------------------|-------------|
----------------------------------------------------------|-------------|
----------------------------------------------------------|-------------|


--5----------|--7--5--3--0L-0L------|
-------------|----------------------|
-------------|----------------------|
-------------|----------------------|
-------------|----------------------|
-------------|----------------------|


--0L-------0--------------------------0-------------------|--0--2-------|
-----------------------------------------------3----------|-------------|
----------------------------------------------------------|-------------|
----------------------------------------------------------|-------------|
----------------------------------------------------------|-------------|
----------------------------------------------------------|-------------|


-------|--7--5--3--0L-0L------|
-------|----------------------|
-------|----------------------|
-------|----------------------|
-------|----------------------|
-------|----------------------|


--0L-------0-----------------------------------0----------|--3--5L------|
--------------------------------------3-------------------|-------------|
----------------------------------------------------------|-------------|
----------------------------------------------------------|-------------|
----------------------------------------------------------|-------------|
----------------------------------------------------------|-------------|


--5----------|-----10L-----|--10---------|-------|-------|-------|
-------------|--8----------|-------------|--12---|-------|--0----|
-------------|-------------|-------------|-------|-------|-------|
-------------|-------------|-------------|-------|-------|-------|
-------------|-------------|-------------|-------|-------|-------|
-------------|-------------|-------------|-------|-------|-------|


----------------------------------------------------------|-------|
-----------------------------0--------1--------3----------|--0----|
--------------------2-------------------------------------|-------|
----------------------------------------------------------|-------|
----------------------------------------------------------|-------|
----------------------------------------------------------|-------|


----------------------------------------------------------|-------|
-----------------------------0--------1--------3----------|--0----|
--------------------2-------------------------------------|-------|
----------------------------------------------------------|-------|
----------------------------------------------------------|-------|
----------------------------------------------------------|-------|

 www.chordzone.org
----------------------------------------------------------|-------|-------|
-----------------------------0----------------------------|-------|-------|
--------------------2-----------------2--------0----------|-------|-------|
----------------------------------------------------------|--4----|-------|
----------------------------------------------------------|-------|-------|
----------------------------------------------------------|-------|-------|


-------|----------------------------------------------------------|-------|
--0----|-----------------------------0--------1--------3----------|--0----|
-------|--------------------2-------------------------------------|-------|
-------|----------------------------------------------------------|-------|
-------|----------------------------------------------------------|-------|
-------|----------------------------------------------------------|-------|


----------------------------------------------------------|-------|
-----------------------------0--------1--------3----------|--0----|
--------------------2-------------------------------------|-------|
----------------------------------------------------------|-------|
----------------------------------------------------------|-------|
----------------------------------------------------------|-------|


----------------------------------------------------------|-------|-------|
-----------------------------0----------------------------|-------|-------|
--------------------2-----------------0--------2----------|-------|-------|
----------------------------------------------------------|--4----|-------|
----------------------------------------------------------|-------|-------|
----------------------------------------------------------|-------|-------|


-------------|----------------------|-------------|-------|-------------|
-----3-------|--3--2----------------|--1--0-------|-------|-----3-------|
-------------|--------2--------2----|-------------|-------|-------------|
--2----------|----------------------|-------------|-------|--2----------|
-------------|----------------------|-------------|-------|-------------|
-------------|----------------------|-------------|-------|-------------|


----------------------|-------------|-------|--------0-------------|
--3--2----------------|--1--0-------|-------|--4--------------0----|
--------2--------2----|-------------|-------|----------------------|
----------------------|-------------|-------|----------------------|
----------------------|-------------|-------|----------------------|
----------------------|-------------|-------|----------------------|

www.chordzone.org
----------------------|--------0-------------|
--0--0--------0-------|--4--------------0----|
--------2-------------|----------------------|
----------------------|----------------------|
----------------------|----------------------|
----------------------|----------------------|


----------------------------------------------------------|
--0-----------------------------------0L-------0----------|
-----------------------------2----------------------------|
----------------------------------------------------------|
----------------------------------------------------------|
----------------------------------------------------------|


----------------------------------------------------------|
-----------0-----------------0----------------------------|
--2-----------------2-----------------2-------------------|
----------------------------------------------------------|
----------------------------------------------------------|
----------------------------------------------------------|


----------------------|-------|-------|-------|
-----0-----0----------|-------|-------|--0----|
--2-----2-----2--0----|-------|-------|-------|
----------------------|--4----|-------|-------|
----------------------|-------|-------|-------|
----------------------|-------|-------|-------|


----------------------------------------------------------|-------|
-----------------------------0--------1--------3----------|--0----|
--------------------2-------------------------------------|-------|
----------------------------------------------------------|-------|
----------------------------------------------------------|-------|
----------------------------------------------------------|-------|


----------------------------------------------------------|-------|
-----------------------------0--------1--------3----------|-------|
--------------------2-------------------------------------|--4----|
----------------------------------------------------------|-------|
----------------------------------------------------------|-------|
----------------------------------------------------------|-------|


----------------------------------------------------------|-------|-------|
-----------------------------0----------------------------|-------|-------|
--------------------2-----------------2--------0----------|-------|-------|
----------------------------------------------------------|--4----|-------|
----------------------------------------------------------|-------|-------|
----------------------------------------------------------|-------|-------|


-------|----------------------------------------------------------|-------|
--0----|-----------------------------0--------1--------3----------|--0----|
-------|--------------------2-------------------------------------|-------|
-------|----------------------------------------------------------|-------|
-------|----------------------------------------------------------|-------|
-------|----------------------------------------------------------|-------|


----------------------------------------------------------|-------|
-----------------------------0--------1--------3----------|--0----|
--------------------2-------------------------------------|-------|
----------------------------------------------------------|-------|
----------------------------------------------------------|-------|
----------------------------------------------------------|-------|


----------------------------------------------------------|-------||
-----------------------------0----------------------------|-------||
--------------------2-----------------0--------2----------|-------||
----------------------------------------------------------|--4----||
----------------------------------------------------------|-------||
----------------------------------------------------------|-------||


Recommended for you:


Click to rate this post!
[Total: 1 Average: 5]

To The Top Get The Guitar Tabs

See Also