LOVE AAJ KAL - Shayad Chords and Lyrics

LOVE AAJ KAL – Shayad Guitar Tabs

Enable Light Mode
#
A+
A-

This song is from the movie Love Aaj Kal(2020), released on 22 January 2020 starring Kartik Aaryan, Sara Ali Khan, Arushi Sharma. The vocals are by Arijit Singh. The music is produced by Pritam, and the lyrics are written by Irshad Kamil.
It is originally in the key of F Minor. You can change it to any key you want, using the Transpose option. The average tempo is 68 BPM. These chords are simple and easy to play on the guitar or piano.
Vocals: Arijit Singh,
Producer(s): Pritam,
Writer(s): Irshad Kamil,

Click here for the chords and lyrics version

 
Original Key: F Minor
Time Signature: 4/4
Tempo: 68
Suggested Strumming: DU,DU,DU,DU
c h o r d  z o n e . o r g
 

E |-------|--0-------------------------------------------------|
B |-------|--------1--3L-3L----3L-------3L----------3----------|
G |-------|-----0----------------------------------------------|
D |-------|----------------------------------------------------|
A |-------|--3L-3L-3-------------------------------------------|
E |-------|-----------3L-3L----3L-------3L----------3----------|


--0-------------------------------------------------|
--------1--3L-3L----3L-------3L----------3----------|
-----0----------------------------------------------|
----------------------------------------------------|
--3L-3L-3-------------------------------------------|
-----------3L-3L----3L-------3L----------3----------|


--------------0L-0L-------0-----------0L-0L-------0----|
-----------1-----------------------3-------------------|
--------2----------------------------------------------|
-----------------------------4--5----------------------|
--0----------------------------------------------------|
-----------------------------2-------------------------|


-----------0L-0L-0L-------0L----------------0-------|
--------0-----------------------------------12------|
-----0----------------------------------------------|
--2-------------------------------------------------|
----------------------------------------------------|
--0L-0L-0L-0----------------------------------------|


--12-12----10-10-------7--7--------8--7--5--3-------|
----------------------------------------------------|
----------------------------------------------------|
----------------------------------------------------|
----------------------------------------------------|
----------------------------------------------------|


--5-----10L---10-------------------------------7----|
----------------------------------------------------|
----------------------------------------------------|
----------------------------------------------------|
----------------------------------------------------|
----------------------------------------------------|


--5--------7--5--------7--5--------7--5--3--2-------|
----------------------------------------------------|
----------------------------------------------------|
----------------------------------------------------|
----------------------------------------------------|
----------------------------------------------------|


--3-------------------------|
-----------------------12---|
----------------------------|
----------------------------|
----------------------------|
----------------------------|


--12-12----10-10-------7--7--------8--7--5--3-------|
----------------------------------------------------|
----------------------------------------------------|
----------------------------------------------------|
----------------------------------------------------|
----------------------------------------------------|


--5-----10L---10-------------------------------7----|
----------------------------------------------------|
----------------------------------------------------|
----------------------------------------------------|
----------------------------------------------------|
----------------------------------------------------|


--5--------7--5--------7--5--------7--5--3--2-------|
----------------------------------------------------|
----------------------------------------------------|
----------------------------------------------------|
----------------------------------------------------|
----------------------------------------------------|


--3--------------------------------7--7--10-10-10L--|
----------------------------------------------------|
----------------------------------------------------|
----------------------------------------------------|
----------------------------------------------------|
----------------------------------------------------|

 www.chordzone.org
--10----7L----7--------------------7--7-----7-------|
----------------------------------------------------|
----------------------------------------------------|
----------------------------------------------------|
----------------------------------------------------|
----------------------------------------------------|


--7--8--7--5L-5--------------------7--7--10-10-10L--|
----------------------------------------------------|
----------------------------------------------------|
----------------------------------------------------|
----------------------------------------------------|
----------------------------------------------------|


--10-12-------------10-7L-7--------7--7-----7-------|
-----------12----10---------------------------------|
----------------------------------------------------|
----------------------------------------------------|
----------------------------------------------------|
----------------------------------------------------|


--7--8--7--5--------3--5L-5-----------5--3-----5----|
----------------------------------------------------|
----------------------------------------------------|
----------------------------------------------------|
----------------------------------------------------|
----------------------------------------------------|


-----------------10----10-10----10-------8-----8----|
--3-----3-------------------------------------------|
----------------------------------------------------|
----------------------------------------------------|
----------------------------------------------------|
----------------------------------------------------|


--8--10-8--7L-7L----------------7--7--7--10-10-10L--|
----------------------------------------------------|
----------------------------------------------------|
----------------------------------------------------|
----------------------------------------------------|
----------------------------------------------------|


--10-12----15-14-15-12-10L10-------7--7-----7-------|
----------------------------------------------------|
----------------------------------------------------|
----------------------------------------------------|
----------------------------------------------------|
----------------------------------------------------|
 www.chordzone.org

--7--8--7--5L-5L----------------5--15-14----15-10L--|
----------------------------------------------------|
----------------------------------------------------|
----------------------------------------------------|
----------------------------------------------------|
----------------------------------------------------|


--10-12-------------10-7L-7--------7--7-----7-------|
-----------12----10---------------------------------|
----------------------------------------------------|
----------------------------------------------------|
----------------------------------------------------|
----------------------------------------------------|


--7--8--7--5--------3--5--------------5--3-----5----|
----------------------------------------------------|
----------------------------------------------------|
----------------------------------------------------|
----------------------------------------------------|
----------------------------------------------------|


-----------------10----10-10----10-------8-----8----|
--3-----3-------------------------------------------|
----------------------------------------------------|
----------------------------------------------------|
----------------------------------------------------|
----------------------------------------------------|


--8--10-8--7L-7-------------------------------------||
----------------------------------------------------||
----------------------------------------------------||
----------------------------------------------------||
----------------------------------------------------||
----------------------------------------------------||


 

Recommended for you:


Click to rate this post!
[Total: 0 Average: 0]

To The Top Get The Guitar Tabs

See Also