Now Reading
NIKO MOON – Good Time Guitar Tabs
NIKO MOON - Good Time Chords and Lyrics

NIKO MOON – Good Time Guitar Tabs

Enable Light Mode
#
A+
A-

This song is from the album GOOD TIME(2019), released on 19 July 2019. The vocals are by Niko Moon, the music is produced by Niko Moon, Mark Trussell, and the lyrics are written by Josh Murty , Niko Moon.
This song is originally in the key of Bb Major. You can change it to any key you want, using the Transpose option. The average tempo is 72 BPM. These chords are simple and easy to play on the guitar, ukulele or piano.

Click here for the chords and lyrics version
Requested By Josh

 
Original Key: Bb Major
Time Signature: 4/4
Tempo: 72
Suggested Strumming: DU,DU,DU,DU
c h o r d  z o n e . o r g
 
E |--------------------------------------0--3--5--7----|
B |--------------------------------0--3----------------|
G |----------------------------------------------------|
D |----------------------------------------------------|
A |----------------------------------------------------|
E |----------------------------------------------------|


--7-----5L----5-----------------7--7--5--7--3--0----|
----------------------------------------------------|
----------------------------------------------------|
----------------------------------------------------|
----------------------------------------------------|
----------------------------------------------------|


--5-----3L----3-----------------------0--3--5--7----|
--------------------------------0--3----------------|
----------------------------------------------------|
----------------------------------------------------|
----------------------------------------------------|
----------------------------------------------------|


--7-----5L----5-----------------7--7--5--7--3--0----|
----------------------------------------------------|
----------------------------------------------------|
----------------------------------------------------|
----------------------------------------------------|
----------------------------------------------------|


--5-----3L----3-----------------10-7--10-7--10-7----|
----------------------------------------------------|
----------------------------------------------------|
----------------------------------------------------|
----------------------------------------------------|
----------------------------------------------------|


--12----7L----7-----------------10----10----10------|
--------------------------10-------12----12----12---|
----------------------------------------------------|
----------------------------------------------------|
----------------------------------------------------|
----------------------------------------------------|


--12----------------------------------0--3--5--7----|
--------12----10----8--8--------0--3----------------|
----------------------------------------------------|
----------------------------------------------------|
----------------------------------------------------|
----------------------------------------------------|


--7-----5L----5-----------------7--7--5--7--3--0----|
----------------------------------------------------|
----------------------------------------------------|
----------------------------------------------------|
----------------------------------------------------|
----------------------------------------------------|


--5-----3L----3--------------3--3--2--3-----0-------|
-----------------------------------------------3----|
----------------------------------------------------|
----------------------------------------------------|
----------------------------------------------------|
----------------------------------------------------|
 www.chordzone.org
 

-----0-----------------------3--3--2--3-----0-------|
--3-----0-----0--------------------------------3----|
-----------2----------------------------------------|
----------------------------------------------------|
----------------------------------------------------|
----------------------------------------------------|


-----0-----------------------------------------0L---|
--3-----0-----0-----------------3--3--3--3----------|
-----------2----------------------------------------|
----------------------------------------------------|
----------------------------------------------------|
----------------------------------------------------|


--0-----------0-------------------------------------|
-----3--3--3-----3-----0L-0-------------------------|
--------------------2-------------------------------|
----------------------------------------------------|
----------------------------------------------------|
----------------------------------------------------|


-----------------------------3--3--2--3-----0-------|
-----------------------------------------------3----|
----------------------------------------------------|
----------------------------------------------------|
----------------------------------------------------|
----------------------------------------------------|


-----0-----------------------3--3--2--3-----0-------|
--3-----0-----0--------------------------------3----|
-----------2----------------------------------------|
----------------------------------------------------|
----------------------------------------------------|
----------------------------------------------------|


-----0-----------------------------------------0L---|
--3-----0-----0-----------------3--3--3--3----------|
-----------2----------------------------------------|
----------------------------------------------------|
----------------------------------------------------|
----------------------------------------------------|


--0-----------0-------------------------------------|
-----3--3--3-----3-----0L-0-------------------------|
--------------------2-------------------------------|
----------------------------------------------------|
----------------------------------------------------|
----------------------------------------------------|


--------------0--3--5--7--7-----5L----5-------------|
--------0--3----------------------------------------|
----------------------------------------------------|
----------------------------------------------------|
----------------------------------------------------|
----------------------------------------------------|


--------7--7--5--7--3--0--5-----3L----3-------------|
----------------------------------------------------|
----------------------------------------------------|
----------------------------------------------------|
----------------------------------------------------|
----------------------------------------------------|

 
 www.chordzone.org
--------------0--3--5--7--7-----5L----5-------------|
--------0--3----------------------------------------|
----------------------------------------------------|
----------------------------------------------------|
----------------------------------------------------|
----------------------------------------------------|


--------7--7--5--7--3--0--5-----3L----3-------------|
----------------------------------------------------|
----------------------------------------------------|
----------------------------------------------------|
----------------------------------------------------|
----------------------------------------------------|


--------10----10----10----12------------------------|
-----------12----12----12-------12L---12------------|
----------------------------------------------------|
----------------------------------------------------|
----------------------------------------------------|
----------------------------------------------------|


--------10----10----10----12------------------------|
--10-------12----12----12-------12----10----8--8L---|
----------------------------------------------------|
----------------------------------------------------|
----------------------------------------------------|
----------------------------------------------------|


--------------0--3--5--7--7-----5L----5-------------|
--8-----0--3----------------------------------------|
----------------------------------------------------|
----------------------------------------------------|
----------------------------------------------------|
----------------------------------------------------|


--------7--7--5--7--3--0--5-----3L----3-------------||
----------------------------------------------------||
----------------------------------------------------||
----------------------------------------------------||
----------------------------------------------------||
----------------------------------------------------||


Recommended for you:


Click to rate this post!
[Total: 0 Average: 0]

To The Top Get The Guitar Tabs

See Also