OLIVIA RODRIGO – Drivers License Guitar Tabs

Enable Light Mode
#
A+
A-

1

This single was released on 08 January 2021. The vocals are by Olivia Rodrigo, the music is produced by Dan Nigro. Olivia Rodrigo, and the lyrics are written by Dan Nigro.
This song is originally in the key of Bb Major. You can change it to any key you want, using the Transpose option. The average tempo is 70 BPM. These chords are simple and easy to play on the guitar, ukulele or piano.

Click here for the chords and lyrics version

 
Original Key: Bb Major
Time Signature: 4/4
Tempo: 70
Suggested Strumming: DU,DU,DU,DU
c h o r d  z o n e . o r g

E |-------|-----------------1-----1----------------------------|
B |-------|--------3-----3--------------4-----4-----3-----1----|
G |-------|----------------------------------------------------|
D |-------|----------------------------------------------------|
A |-------|----------------------------------------------------|
E |-------|----------------------------------------------------|


-----------------1-----1----------------------------|
--------------3--------------4-----3--------4--3----|
-----0----------------------------------------------|
----------------------------------------------------|
----------------------------------------------------|
----------------------------------------------------|


-----------------1-----1----------------------------|
--------------3--------------4-----4-----3-----1----|
----------------------------------------------------|
----------------------------------------------------|
----------------------------------------------------|
----------------------------------------------------|

 www.chordzone.org
-----------------1-----1----------------------------|
--------------3--------------4-----3--------4--3----|
-----0----------------------------------------------|
----------------------------------------------------|
----------------------------------------------------|
----------------------------------------------------|


----------------------------------------------------|
----------------------------------------------------|
--------3--2--3-----3--2--3-----3--0--3-------------|
-----------------------------------------3L----3----|
----------------------------------------------------|
----------------------------------------------------|


----------------------------------------------------|-------|
--------3-----1-----------3-----1L----1-------------|-------|
-----------------------3-----------------3----------|-------|
--------------------------------------------3-------|-------|
----------------------------------------------------|-------|
----------------------------------------------------|-------|


-----------------1-----1----------------------------|
--------------3--------------4-----4-----3-----1----|
----------------------------------------------------|
--3L----3-------------------------------------------|
----------------------------------------------------|
----------------------------------------------------|


-----------------1-----1-----3----------------------|
--------------3--------------------3--------4--3----|
-----0----------------------------------------------|
----------------------------------------------------|
----------------------------------------------------|
----------------------------------------------------|


-----------------1-----1----------------------------|
--------------3--------------4-----4-----3-----1----|
----------------------------------------------------|
----------------------------------------------------|
----------------------------------------------------|
----------------------------------------------------|

 
 www.chordzone.org
-----------------1-----1----------------------------|
--------------3--------------4-----3--------4--3----|
-----0----------------------------------------------|
----------------------------------------------------|
----------------------------------------------------|
----------------------------------------------------|


----------------------------------------------------|
----------------------------------------------------|
--------3--2--3-----3--2--3-----3--0--3-------------|
-----------------------------------------3L----3----|
----------------------------------------------------|
----------------------------------------------------|


----------------------------------------------------|
--------3-----1-----------3-------------------------|
-----------------------3--------5L----5--3----------|
--------------------------------------------3-------|
----------------------------------------------------|
----------------------------------------------------|


-----------------------1----|--3--3--3--3--5--5--5--5----|
----------------------------|----------------------------|
----------------------------|----------------------------|
----------------------------|----------------------------|
----------------------------|----------------------------|
----------------------------|----------------------------|


--6-----6-----6-----6-----10----8--------6----------|
----------------------------------------------------|
----------------------------------------------------|
----------------------------------------------------|
----------------------------------------------------|
----------------------------------------------------|


-----1----------------------|--1--------------------1----|
----------------------------|----------------------------|
----------------------------|----------------------------|
----------------------------|----------------------------|
----------------------------|----------------------------|
----------------------------|----------------------------|


--3--3--3--3--5--5--5--5----|
----------------------------|
----------------------------|
----------------------------|
----------------------------|
----------------------------|


--6-----6-----6-----6-----10----10----------10-8----|
----------------------------------------------------|
----------------------------------------------------|
----------------------------------------------------|
----------------------------------------------------|
----------------------------------------------------|


--10-------10----------6----|
----------------------------|
----------------------------|
----------------------------|
----------------------------|
----------------------------|


--10----8--6--10----8--6--10-8-----6--10----8--6L---|
----------------------------------------------------|
----------------------------------------------------|
----------------------------------------------------|
----------------------------------------------------|
----------------------------------------------------|


--6--3L-3--------------1----|
----------------------------|
----------------------------|
----------------------------|
----------------------------|
----------------------------|


--3--1-----1----------------------------------------|
--------------3--3-----1--1--------3--1-------------|
--------------------------------------------3--3----|
----------------------------------------------------|
----------------------------------------------------|
----------------------------------------------------|


----------------------------------------------------|--10-6--10-6----|
----------------------------------------------------|----------------|
-----------3L-3L----------3L-------3L----------3----|----------------|
----------------------------------------------------|----------------|
----------------------------------------------------|----------------|
----------------------------------------------------|----------------|


--10-10----11-10----6--8----|--10-6--10-6----|--10-10----11-10----6--8----|
--------11------------------|----------------|--------11------------------|
----------------------------|----------------|----------------------------|
----------------------------|----------------|----------------------------|
----------------------------|----------------|----------------------------|
----------------------------|----------------|----------------------------|


--10----10------|--10-10----11-10----6--3----|--1-----6-----6--------1----|
-----8-----8----|--------11------------------|----------------------------|
----------------|----------------------------|----------------------------|
----------------|----------------------------|----------------------------|
----------------|----------------------------|----------------------------|
----------------|----------------------------|----------------------------|


--1-----------6-----5--6--5-------------------------|--10-6--10-6----|
----------------------------------------------------|----------------|
----------------------------------------------------|----------------|
----------------------------------------------------|----------------|
----------------------------------------------------|----------------|
----------------------------------------------------|----------------|


--10-10----11-10----6--8----|--10-6--10-6----|--10-10----11-10----6--8----|
--------11------------------|----------------|--------11------------------|
----------------------------|----------------|----------------------------|
----------------------------|----------------|----------------------------|
----------------------------|----------------|----------------------------|
----------------------------|----------------|----------------------------|


--10----10------|--10-10----11-10----6--3----|--1-----6-----6--------1----|
-----8-----8----|--------11------------------|----------------------------|
----------------|----------------------------|----------------------------|
----------------|----------------------------|----------------------------|
----------------|----------------------------|----------------------------|
----------------|----------------------------|----------------------------|


--1-----------6-----5--6--5-------------------------||
----------------------------------------------------||
----------------------------------------------------||
----------------------------------------------------||
----------------------------------------------------||
----------------------------------------------------||


Recommended for you:


Click to rate this post!
[Total: 0 Average: 0]

To The Top Get The Guitar Tabs

See Also