Now Reading
VISHAL MISHRA – Humko Tum Mil Gaye Guitar Tabs

VISHAL MISHRA – Humko Tum Mil Gaye Guitar Tabs

Enable Light Mode
#
A+
A-

This single was released on 15 September 2020. The vocals are by Vishal Mishra. The music is produced by Naresh Sharma, and the lyrics are written by Sayeed Quadri.
It is originally in the key of Bb Major. You can change it to any key you want, using the Transpose option. The average tempo is 58 BPM. These chords are simple and easy to play on the guitar or piano.
Vocals: Vishal Mishra,
Producer(s): Naresh Sharma,
Writer(s): Sayeed Quadri,

Click here for the chords and lyrics version

 
Original Key: Bb Major
Time Signature: 4/4
Tempo: 58
Suggested Strumming: DU,DU,DU,DU
c h o r d  z o n e . o r g

Legend
L - tied note
x - dead note
h - hammer on/pull off
b - bend
s - slide
~ - vibrato
g - ghost note
> - accentuated note
t - trill
M - palm mute
. - staccato
P - popping (bass)
S - slapping (bass)
+ - tapping
W - wide vibrato
< - fade in
w - whammy bar
= - tremolo picking
v - brush up
^ - brush down
V - pick stroke up
n - pick stroke down


E |-------|--------------3-------------------------------------|
B |-------|-----------3----------------------------------------|
G |-------|--3-----5-----------------0-----2--3-----2L----2----|
D |-------|----------------------------------------------------|
A |-------|----------------------------------------------------|
E |-------|----------------------------------------------------|


--------------3-------------------------------------|
-----------3----------------------------------------|
--3-----5-----------------0-----2--3-----2L----2----|
----------------------------------------------------|
----------------------------------------------------|
----------------------------------------------------|


--------------3-------------------------------------|
-----------3----------------------------------------|
--3-----5-----------------0-----2--3-----2L----2----|
----------------------------------------------------|
----------------------------------------------------|
----------------------------------------------------|


--------------3-------------------------------------|
-----------3----------------------------------------|
--3-----5-----------------0-----2--3-----2----------|
----------------------------------------------------|
----------------------------------------------------|
----------------------------------------------------|


-----------------------------------------------10---|
-----------------------------------------6----------|
----------------------------------------------------|
----------------------------------------------------|
----------------------------------------------------|
----------------------------------------------------|


--10----10-------8-----------------------------10---|
-----------------------11-10-------------6----------|
----------------------------------------------------|
----------------------------------------------------|
----------------------------------------------------|
----------------------------------------------------|


--10----10-------8----------------------------------|
-----------------------11-10------------------------|
----------------------------------------------------|
----------------------------------------------------|
----------------------------------------------------|
----------------------------------------------------|


--13L---------------13-10-15----13----11----10------|
----------------------------------------------------|
----------------------------------------------------|
----------------------------------------------------|
----------------------------------------------------|
----------------------------------------------------|


--10-11-13L---13-------------------------------10---|
-----------------------------------------6----------|
----------------------------------------------------|
----------------------------------------------------|
----------------------------------------------------|
----------------------------------------------------|


--10----10-------8-----------------------------10---|
-----------------------11-10-------------6----------|
----------------------------------------------------|
----------------------------------------------------|
----------------------------------------------------|
----------------------------------------------------|


--10----10-11-10-8-----------------------8-----10---|
-----------------------11-10------------------------|
----------------------------------------------------|
----------------------------------------------------|
----------------------------------------------------|
----------------------------------------------------|


--8--------------6-----5--5--------------13---------|
----------------------------------------------------|
----------------------------------------------------|
----------------------------------------------------|
----------------------------------------------------|
----------------------------------------------------|


--8--10L------10-------------------------------10---|
-----------------------------------------6----------|
----------------------------------------------------|
----------------------------------------------------|
----------------------------------------------------|
----------------------------------------------------|


--10----10-------8-----------------------------10---|
-----------------------11-10-------------6----------|
----------------------------------------------------|
----------------------------------------------------|
----------------------------------------------------|
----------------------------------------------------|


--10----10-------8-----------------------8-----10---|
-----------------------11-10------------------------|
----------------------------------------------------|
----------------------------------------------------|
----------------------------------------------------|
----------------------------------------------------|


--8--------------6-----5--5--------------13---------|
----------------------------------------------------|
----------------------------------------------------|
----------------------------------------------------|
----------------------------------------------------|
----------------------------------------------------|


-----10L------10-------------------------8-----10---|
--13------------------------------------------------|
----------------------------------------------------|
----------------------------------------------------|
----------------------------------------------------|
----------------------------------------------------|


--8--------------6-----5--5--------------13---------|
----------------------------------------------------|
----------------------------------------------------|
----------------------------------------------------|
----------------------------------------------------|
----------------------------------------------------|


--8--10L------10------------------------------------|
----------------------------------------------------|
----------------------------------------------------|
----------------------------------------------------|
----------------------------------------------------|
----------------------------------------------------|


--10-------10-11-13----10L10-------------10-8-------|
-----------------------------------------------11---|
----------------------------------------------------|
----------------------------------------------------|
----------------------------------------------------|
----------------------------------------------------|


--10-------10-11-13----10L10-------------------15---|
-----------------------------------------11---------|
----------------------------------------------------|
----------------------------------------------------|
----------------------------------------------------|
----------------------------------------------------|


--15L---------15-13----11----------------13----11---|
--------------------------13------------------------|
----------------------------------------------------|
----------------------------------------------------|
----------------------------------------------------|
----------------------------------------------------|


--10-------------------------------------------10---|
----------------------------------------------------|
----------------------------------------------------|
----------------------------------------------------|
----------------------------------------------------|
----------------------------------------------------|


--10L---------10-8-----6--10-------------11----13---|
----------------------------------------------------|
----------------------------------------------------|
----------------------------------------------------|
----------------------------------------------------|
----------------------------------------------------|


--10L---------10-8-----6--10-------------------15---|
-----------------------------------------11---------|
----------------------------------------------------|
----------------------------------------------------|
----------------------------------------------------|
----------------------------------------------------|


--15L---------15-13----11-8--------------13----11---|
----------------------------------------------------|
----------------------------------------------------|
----------------------------------------------------|
----------------------------------------------------|
----------------------------------------------------|


--10-------------------------------------------10---|
-----------------------------------------6----------|
----------------------------------------------------|
----------------------------------------------------|
----------------------------------------------------|
----------------------------------------------------|


--10----10-------------------------------------10---|
-----------------13----11-10------------------------|
-----------------------------------------10---------|
----------------------------------------------------|
----------------------------------------------------|
----------------------------------------------------|


--10----10-11-10-8-----6--5--------------8-----10---|
----------------------------------------------------|
----------------------------------------------------|
----------------------------------------------------|
----------------------------------------------------|
----------------------------------------------------|


--8--------------6-----5--5--------------13---------|
----------------------------------------------------|
----------------------------------------------------|
----------------------------------------------------|
----------------------------------------------------|
----------------------------------------------------|


-----10L------10------------------------------------||
--13------------------------------------------------||
----------------------------------------------------||
----------------------------------------------------||
----------------------------------------------------||
----------------------------------------------------||


 

Recommended for you:


Click to rate this post!
[Total: 0 Average: 0]

To The Top Get The Guitar Tabs

See Also