Now Reading
VISHAL MISHRA – Woh Chaand Kahan Se Laogi Guitar Tabs

VISHAL MISHRA – Woh Chaand Kahan Se Laogi Guitar Tabs

Enable Light Mode
#
A+
A-

This single was released on 26 November 2020. The vocals are by Vishal Mishra ,the music is produced by Manoj Muntashir, and the lyrics are written by Vishal Mishra ,.
It is originally in the key of G# Minor. You can change it to any key you want, using the Transpose option. The average tempo is 70 BPM. These chords are simple and easy to play on the guitar or piano.
Vocals: Vishal Mishra ,
Producer(s): Vishal Mishra ,
Writer(s): Manoj Muntashir,

Click here for the chords and lyrics version

 
Original Key: G# Minor
Time Signature: 4/4
Tempo: 70
Suggested Strumming: DU,DU,DU,DU
c h o r d  z o n e . o r g
 
E |-------|-----------0----------------------------------------|
B |-------|--4--2--4-----4-----2--0--2--0--2--4--2-------------|
G |-------|--------------------------------------------4--3----|
D |-------|----------------------------------------------------|
A |-------|----------------------------------------------------|
E |-------|----------------------------------------------------|


----------------------------------------------------|
--0-----0--2--0-------------------------------------|
-----3--------------3-----1-------------------------|
----------------------------------------------------|
----------------------------------------------------|
----------------------------------------------------|


-----------0----------------------------------------|
--4--2--4-----4-----2--0--2--0--2--4--2-----0-------|
-----------------------------------------------3----|
----------------------------------------------------|
----------------------------------------------------|
----------------------------------------------------|

 www.chordzone.org
----------------------------------------------------|-------|
--0-----0--2--0-------------------------------------|-------|
-----3--------------3-----1-------------------------|-------|
----------------------------------------------------|-------|
----------------------------------------------------|-------|
----------------------------------------------------|-------|


-----------0----------------------------------------|
--4--2--4-----4-----2--0--2--0--2--4--2-----0-------|
-----------------------------------------------3----|
----------------------------------------------------|
----------------------------------------------------|
----------------------------------------------------|


----------------------------------------------------|
--0-----0--2--0-------------------------------------|
-----3--------------3-----1-------------------------|
----------------------------------------------------|
----------------------------------------------------|
----------------------------------------------------|


-----------0----------------------------------------|
--4--2--4-----4-----2--0--2-----2--4--2-----0-------|
-----------------------------4-----------------3----|
----------------------------------------------------|
----------------------------------------------------|
----------------------------------------------------|


--------------------------------------------0--0----|
--0-----0--2--0-------------------------------------|
-----3--------------3-----1-------------------------|
----------------------------------------------------|
----------------------------------------------------|
----------------------------------------------------|


--0-------------------------------------------------|
--------4--2--2-----0-----------------------0--0----|
-----------------------3--1-----3--1----------------|
--------------------------------------4-------------|
----------------------------------------------------|
----------------------------------------------------|


----------------------------------------------------|
--0-------------------------------------------------|
--------3--1-----1----------------------------------|
--------------4-----4--2--2-----4--2--1-----1-------|
----------------------------------------------------|
----------------------------------------------------|


----------------------------------------------------|
----------------------------------------------------|
--1-----1-----1-----1-------------------------------|
-----------1-----------1--------2-----1-----1-------|
--------------------------4-------------------------|
----------------------------------------------------|


----------------------------------------------------|
----------------------------------------------------|
--1-----1--1-----1-----1----------------------------|
--------------------------------1--2--1-----1-------|
--------------------------4-------------------------|
----------------------------------------------------|

  www.chordzone.org
----------------------------------------------------|
----------------------------------------------------|
--1-----1--3--1-------------------------------------|
--------------------4--2--------1--2--1-----1-------|
--------------------------4-------------------------|
----------------------------------------------------|


----------------------------------------------------|
--------------------------------------------2-------|
--1-----1--1-----1-----1----------------------------|
--------------------------------1--2--1-------------|
--------------------------4-------------------------|
----------------------------------------------------|


----------------------------------------------------|
--2-----2--4--2-----0-----------------------0-------|
--------------------------3-----3--1----------------|
--------------------------------------4-------------|
----------------------------------------------------|
----------------------------------------------------|


----------------------------------------------------|
--0-------------------------------------------------|
--------3--1--1-------------------------------------|
--------------------4--2--2-----4--2--1-----1-------|
----------------------------------------------------|
----------------------------------------------------|


----------------------------------------------------|
----------------------------------------------------|
--1-----1-----1-----1-------------------------------|
-----------1-----------1--------2-----1-----1-------|
--------------------------4-------------------------|
----------------------------------------------------|


----------------------------------------------------|-------||
----------------------------------------------------|-------||
--1-----1--4--3-----1-------------------------------|-------||
-----------------------4--2-----4--2--1-------------|-------||
----------------------------------------------------|-------||
----------------------------------------------------|-------||


 

Recommended for you:


Click to rate this post!
[Total: 0 Average: 0]

To The Top Get The Guitar Tabs

See Also