Now Reading
JUBIN NAUTIYAL – Haaye Dil Guitar Tabs

JUBIN NAUTIYAL – Haaye Dil Guitar Tabs

Enable Light Mode
#
A+
A-

This single was released on 17 February 2017. The vocals are by Jubin Nautiyal, the music is produced by Sayeed Quadri, and the lyrics are written by Rocky – Shiv.
This song is originally in the key of C# Minor. You can change it to any key you want, using the Transpose option. The average tempo is 96 BPM. These chords are simple and easy to play on the guitar, ukulele or piano.
Vocals: Jubin Nautiyal ,
Producer: Rocky – Shiv,
Writer: Sayeed Quadri,

Click here for the chords and lyrics version

 
Original Key: C# Minor
Time Signature: 4/4
Tempo: 96
Suggested Strumming: DU,DU,DU,DU
c h o r d  z o n e . o r g
Legend
L - tied note
x - dead note
h - hammer on/pull off
b - bend
s - slide
~ - vibrato
g - ghost note
> - accentuated note
t - trill
M - palm mute
. - staccato
P - popping (bass)
S - slapping (bass)
+ - tapping
W - wide vibrato
< - fade in
w - whammy bar
= - tremolo picking
v - brush up
^ - brush down
V - pick stroke up
n - pick stroke down


E |-----------------------7----|
B |----------------------------|
G |----------------------------|
D |----------------------------|
A |----------------------------|
E |----------------------------|


--5--4--2--4--------5--4--------------------7-------|
----------------------------------------------------|
----------------------------------------------------|
----------------------------------------------------|
----------------------------------------------------|
----------------------------------------------------|


--5--4--2--4--------5--4--------------------7-------|
----------------------------------------------------|
----------------------------------------------------|
----------------------------------------------------|
----------------------------------------------------|
----------------------------------------------------|


www.chordzone.org
 
--5--4--2--4--------5--4--------2-----0--2--0--2L---|
----------------------------------------------------|
----------------------------------------------------|
----------------------------------------------------|
----------------------------------------------------|
----------------------------------------------------|


--2--------------------7----|
----------------------------|
----------------------------|
----------------------------|
----------------------------|
----------------------------|


--5--4--2--4--------5--4--------------------7-------|
----------------------------------------------------|
----------------------------------------------------|
----------------------------------------------------|
----------------------------------------------------|
----------------------------------------------------|


--5--4--2--4--------5--4--------------------7-------|
----------------------------------------------------|
----------------------------------------------------|
----------------------------------------------------|
----------------------------------------------------|
----------------------------------------------------|


--5--4--2--4--------5--4--------2-----0--2--0--2L---|--2-------------|
----------------------------------------------------|----------------|
----------------------------------------------------|----------------|
----------------------------------------------------|----------------|
----------------------------------------------------|----------------|
----------------------------------------------------|----------------|


-----4L-4--4--4--5--0--2----|--4--5--0--2--2-------------|
----------------------------|--------------------2--0L---|
----------------------------|----------------------------|
----------------------------|----------------------------|
----------------------------|----------------------------|
----------------------------|----------------------------|


--------0L----0-----0-----0-----2-----4-----5--4----|--2-------|
--0-------------------------------------------------|----------|
----------------------------------------------------|----------|
----------------------------------------------------|----------|
----------------------------------------------------|----------|
----------------------------------------------------|----------|


-----4L-4--4--4--5--0--2----|--4--5--0--2--2-------------|
----------------------------|--------------------2--0L---|
----------------------------|----------------------------|
----------------------------|----------------------------|
----------------------------|----------------------------|
----------------------------|----------------------------|


----------------------------------------------------|----------|
--0-----------------------------2L----2-----5--4----|--4-------|
--------2L----2-----2-----2-------------------------|----------|
----------------------------------------------------|----------|
----------------------------------------------------|----------|
----------------------------------------------------|----------|


-----------------------------------------------0----|
--2-----------------------------------2-----4-------|
----------------------------------------------------|
----------------------------------------------------|
----------------------------------------------------|
----------------------------------------------------|


--2-----------------------------------4--5-----4----|
----------------------------------------------------|
----------------------------------------------------|
----------------------------------------------------|
----------------------------------------------------|
----------------------------------------------------|


--5-----------------------7--------7--------4-------|
----------------------------------------------------|
----------------------------------------------------|
----------------------------------------------------|
----------------------------------------------------|
----------------------------------------------------|


--2-----------------------0--2----------------------|
----------------------------------------------------|
----------------------------------------------------|
----------------------------------------------------|
----------------------------------------------------|
----------------------------------------------------|


-----------------------------------------------0----|
--2-----------------------------------2-----4-------|
----------------------------------------------------|
----------------------------------------------------|
----------------------------------------------------|
----------------------------------------------------|


--2-----------------------------------4--5-----4----|
----------------------------------------------------|
----------------------------------------------------|
----------------------------------------------------|
----------------------------------------------------|
----------------------------------------------------|


--5-----------------------7--------7--------4-------|
----------------------------------------------------|
----------------------------------------------------|
----------------------------------------------------|
----------------------------------------------------|
----------------------------------------------------|


--2-----------------------------------4--2--0-------|
----------------------------------------------------|
----------------------------------------------------|
----------------------------------------------------|
----------------------------------------------------|
----------------------------------------------------|


--4L----------------------4--------7--------4-------|
----------------------------------------------------|
----------------------------------------------------|
----------------------------------------------------|
----------------------------------------------------|
----------------------------------------------------|


--2-----------------7--9L---|
----------------------------|
----------------------------|
----------------------------|
----------------------------|
----------------------------|


--9-----------4-----4L----4-----------0--2--0--2L---|
----------------------------------------------------|
----------------------------------------------------|
----------------------------------------------------|
----------------------------------------------------|
----------------------------------------------------|


--2-----------------------------------4--2--0-------|
----------------------------------------------------|
----------------------------------------------------|
----------------------------------------------------|
----------------------------------------------------|
----------------------------------------------------|


--4L----------------------4--------7--------4-------|
----------------------------------------------------|
----------------------------------------------------|
----------------------------------------------------|
----------------------------------------------------|
----------------------------------------------------|


--2-----------------------------------9--------4----|
----------------------------------------------------|
----------------------------------------------------|
----------------------------------------------------|
----------------------------------------------------|
----------------------------------------------------|

www.chordzone.org
 

--4--------2--0-------------------------------------|
----------------------------------------------------|
----------------------------------------------------|
----------------------------------------------------|
----------------------------------------------------|
----------------------------------------------------|


--2-----------0-------------------------------------|-------|
--------------------4L----4-----------5--4----------|--2L---|
--------------------------------------------4-------|-------|
----------------------------------------------------|-------|
----------------------------------------------------|-------|
----------------------------------------------------|-------|


----------------------------------------------------||
--2L----------------2-------------------------------||
----------------------------------------------------||
----------------------------------------------------||
----------------------------------------------------||
----------------------------------------------------||


Recommended for you:


Click to rate this post!
[Total: 0 Average: 0]

To The Top Get The Guitar Tabs

See Also