Now Reading
DUNCAN LAURENCE feat FLETCHER – Arcade (Loving You Is A Losing Game) Guitar Tabs

DUNCAN LAURENCE feat FLETCHER – Arcade (Loving You Is A Losing Game) Guitar Tabs

Enable Light Mode
#
A+
A-

This single was released on 27 November 2020. The vocals are by Duncan Laurence , Fletcher , the music is produced by FLETCHER, Duncan Laurence, Wouter Hardy, Will Knox , Joel Sjöö, and the lyrics are written by Wouter Hardy , Oscar Holleman.
This song is originally in the key of A Minor. You can change it to any key you want, using the Transpose option. The average tempo is 72 BPM. These chords are simple and easy to play on the guitar, ukulele or piano.

Click here for the chords and lyrics version

 
Original Key: A Minor
Time Signature: 4/4
Tempo: 72
Suggested Strumming: DU,DU,DU,DU
c h o r d  z o n e . o r g
Legend
L - tied note
x - dead note
h - hammer on/pull off
b - bend
s - slide
~ - vibrato
g - ghost note
> - accentuated note
t - trill
M - palm mute
. - staccato
P - popping (bass)
S - slapping (bass)
+ - tapping
W - wide vibrato
< - fade in
w - whammy bar
= - tremolo picking
v - brush up
^ - brush down
V - pick stroke up
n - pick stroke down


E |-------|-----------8--7--------10---------------------------|
B |-------|--10----------------------8--------8--10L-----------|
G |-------|----------------------------------------------------|
D |-------|----------------------------------------------------|
A |-------|----------------------------------------------------|
E |-------|----------------------------------------------------|


www.chordzone.org
 
-----------------------------------8--7--------10---|
--10----------------------10------------------------|
----------------------------------------------------|
----------------------------------------------------|
----------------------------------------------------|
----------------------------------------------------|


----------------------------------------------------|
--8--------8--10------------------------------------|
----------------------------------------------------|
----------------------------------------------------|
----------------------------------------------------|
----------------------------------------------------|


--------0-------------------|--------------------0-------|
--1--3-----1--0--3--1L------|--1-----------1--3-----1----|
----------------------------|----------------------------|
----------------------------|----------------------------|
----------------------------|----------------------------|
----------------------------|----------------------------|


----------------------------|
--0--3--1--------------1----|
----------------------------|
----------------------------|
----------------------------|
----------------------------|


--3--3--3-----------------------0-------------------|
--------------3--3--3-----3--3----------------------|
--------------------------------------2L------------|
----------------------------------------------------|
----------------------------------------------------|
----------------------------------------------------|


--------------------0-------|----------------------------|
--------------1--3-----1----|--0--3--1-------------------|
--2-------------------------|----------------------------|
----------------------------|----------------------------|
----------------------------|----------------------------|
----------------------------|----------------------------|


--------0-------------------|
--1--3-----1--0--3--1L------|
----------------------------|
----------------------------|
----------------------------|
----------------------------|


--------------------------3-----3-----0--0--0-------|
--1-----------------1-------------------------------|
----------------------------------------------------|
----------------------------------------------------|
----------------------------------------------------|
----------------------------------------------------|


-----3--0-------------------|
--3--------------------1----|
----------------------------|
----------------------------|
----------------------------|
----------------------------|


--3--3--3-----------------------0-------------------|----------------|
--------------3--3--3-----3--3----------------------|----------------|
--------------------------------------2L------------|--2-------------|
----------------------------------------------------|----------------|
----------------------------------------------------|----------------|
----------------------------------------------------|----------------|


--------0-----0-----------------0-----0-------------|
--------------------3--1----------------------------|
--2-----------------------2-------------------------|
----------------------------------------------------|
----------------------------------------------------|
----------------------------------------------------|


-----------1--0-----------------0-----0-------------|
--------3--------3--1--0----------------------------|
--------------------------2-------------------------|
----------------------------------------------------|
----------------------------------------------------|
----------------------------------------------------|


--------0-----0-----------------1-----0L------------|
--------------------3--1----------------------------|
--2-----------------------2-------------------------|
----------------------------------------------------|
----------------------------------------------------|
----------------------------------------------------|


--0--------1--0-----------------0-----0-------------|
--------3--------3--1--0----------------------------|
--------------------------2-------------------------|
----------------------------------------------------|
----------------------------------------------------|
----------------------------------------------------|


--8L----------8--7--8--7L-7-------------------------|
----------------------------------------------------|
----------------------------------------------------|
----------------------------------------------------|
----------------------------------------------------|
----------------------------------------------------|


--0L----------0--3--0-----------------1-----1-------|
-----------------------1----------------------------|
--------------------------2-------------------------|
----------------------------------------------------|
----------------------------------------------------|
----------------------------------------------------|


--0-----------0-----0-------------------------------|
--------------------------3--------1--0-------------|
----------------------------------------------------|
----------------------------------------------------|
----------------------------------------------------|
----------------------------------------------------|


--------0-----0-----------------0-----0-------------|
--------------------3--1----------------------------|
--2-----------------------2-------------------------|
----------------------------------------------------|
----------------------------------------------------|
----------------------------------------------------|


--8L----------8--7--8--7L-7-------------------------|
----------------------------------------------------|
----------------------------------------------------|
----------------------------------------------------|
----------------------------------------------------|
----------------------------------------------------|


--0L----------0--3--0-----------------1-----1-------|
-----------------------1----------------------------|
--------------------------2-------------------------|
----------------------------------------------------|
----------------------------------------------------|
----------------------------------------------------|


www.chordzone.org
 
--0-----------0--3--0-------------------------------|
--------------------------3--------1--0-------------|
----------------------------------------------------|
----------------------------------------------------|
----------------------------------------------------|
----------------------------------------------------|


--------0-----0-----------------0-----0L------------|
--------------------3--1----------------------------|
--2-----------------------2-------------------------|
----------------------------------------------------|
----------------------------------------------------|
----------------------------------------------------|


--0L----------------0-------------------------------||
----------------------------------------------------||
----------------------------------------------------||
----------------------------------------------------||
----------------------------------------------------||
----------------------------------------------------||


Recommended for you:


Click to rate this post!
[Total: 0 Average: 0]

To The Top Get The Guitar Tabs

See Also