Now Reading
G VENUGOPAL feat THE QUINTET – Raree Rareeram Raaro Guitar Tabs

G VENUGOPAL feat THE QUINTET – Raree Rareeram Raaro Guitar Tabs

Enable Light Mode
#
A+
A-

This single was released on 07 May 2015. The vocals are by G Venugopal, the music is produced by O N V Kurup, and the lyrics are written by Mohan Sithara.
This song is originally in the key of C Minor. You can change it to any key you want, using the Transpose option. The average tempo is 96 BPM. These chords are simple and easy to play on the guitar, ukulele or piano.
Vocals: G Venugopal,
Producer: Mohan Sithara,
Writer: O N V Kurup,

Click here for the chords and lyrics version

 
Original Key: C Minor
Time Signature: 7/8
Tempo: 96
Suggested Strumming: D,D,D,D,D,D,D
c h o r d  z o n e . o r g
 
Legend
L - tied note
x - dead note
h - hammer on/pull off
b - bend
s - slide
~ - vibrato
g - ghost note
> - accentuated note
t - trill
M - palm mute
. - staccato
P - popping (bass)
S - slapping (bass)
+ - tapping
W - wide vibrato
< - fade in
w - whammy bar
= - tremolo picking
v - brush up
^ - brush down
V - pick stroke up
n - pick stroke down


E |-------------------------|-------------------------|
B |-------------------------|--3--4--1--3-----4--1----|
G |-------------------------|-------------------------|
D |-------------------------|-------------------------|
A |-------------------------|-------------------------|
E |-------------------------|-------------------------|


-------------------------|-------------------------|-----3L-3L----------3----|
--3--1L-1L----------1----|--3--4--1--3-----4--1----|--0----------------------|
-------------------------|-------------------------|-------------------------|
-------------------------|-------------------------|-------------------------|
-------------------------|-------------------------|-------------------------|
-------------------------|-------------------------|-------------------------|

www.chordzone.org
 

-------------------------|-------------------------|-------------------------|
--3--4--1--3-----4--1----|--3--1L-1L----------1----|--3--4--1--3-----4--1----|
-------------------------|-------------------------|-------------------------|
-------------------------|-------------------------|-------------------------|
-------------------------|-------------------------|-------------------------|
-------------------------|-------------------------|-------------------------|


-----3L-3L----------3----|-------------------------|--------3----------------|
--0----------------------|--1--4--3--4-------------|--3--4-----3-------------|
-------------------------|-------------------------|-------------------------|
-------------------------|-------------------------|-------------------------|
-------------------------|-------------------------|-------------------------|
-------------------------|-------------------------|-------------------------|


-------------------------|--------3----------------|-----------1--3--4--6----|
--1--4--3--4-------------|--3--4-----3-------------|--1--3--4----------------|
-------------------------|-------------------------|-------------------------|
-------------------------|-------------------------|-------------------------|
-------------------------|-------------------------|-------------------------|
-------------------------|-------------------------|-------------------------|


--4--4-----------8-------|--7L----------------7----|-------------------------|
-------------------------|-------------------------|-------------------------|
-------------------------|-------------------------|-------------------------|
-------------------------|-------------------------|-------------------------|
-------------------------|-------------------------|-------------------------|
-------------------------|-------------------------|-------------------------|


--10-11----8--10-8-------|--10-11----8--10-8-------|--3--4-------------------|
--------------------8----|--------------------8----|-----------3--4--3--1----|
-------------------------|-------------------------|-------------------------|
-------------------------|-------------------------|-------------------------|
-------------------------|-------------------------|-------------------------|
-------------------------|-------------------------|-------------------------|


--3--4-------------------|-------------------------|-------------------------|
-----------3--4--3--1----|--3--4--1--3-----4--1----|--3--1L-1L----------1----|
-------------------------|-------------------------|-------------------------|
-------------------------|-------------------------|-------------------------|
-------------------------|-------------------------|-------------------------|
-------------------------|-------------------------|-------------------------|


-------------------------|-----3L-3L----------3----|-------------------------|
--3--4--1--3-----4--1----|--0----------------------|--3--4--1--3-----4--1----|
-------------------------|-------------------------|-------------------------|
-------------------------|-------------------------|-------------------------|
-------------------------|-------------------------|-------------------------|
-------------------------|-------------------------|-------------------------|


www.chordzone.org
 
-------------------------|-------------------------|-----3-------------------||
--3--1L-1L----------1----|--3--4--1--3-----4--1----|--0----------------------||
-------------------------|-------------------------|-------------------------||
-------------------------|-------------------------|-------------------------||
-------------------------|-------------------------|-------------------------||
-------------------------|-------------------------|-------------------------||


Recommended for you:


Click to rate this post!
[Total: 0 Average: 0]

To The Top Get The Guitar Tabs

See Also