skip to content

BTS (방탄소년단) – Butter Guitar Tabs

#
A+
A-

This single was released on 21 May 2021. The vocals are by RM, Jin, SUGA, ​j-hope, Jimin, V,Jung Kook, the music is produced by Ron Perry, Sebastian Garcia, Alex Bilowitz, RM, Stephen Kirk, Rob Grimaldi , Jenna Andrews, and the lyrics are written by Ron Perry, Rob Grimaldi , Stephen Kirk.
This song is originally in the key of Ab Major. You can change it to any key you want, using the Transpose option. The average tempo is 110 BPM. These chords are simple and easy to play on the guitar, ukulele or piano.

Click here for the chords and lyrics version

 
Original Key: Ab Major
Time Signature: 4/4
Tempo: 110
Suggested Strumming: DU,DU,DU,DU
c h o r d  z o n e . o r g

 Legend
L - tied note
x - dead note
h - hammer on/pull off
b - bend
s - slide
~ - vibrato
g - ghost note
> - accentuated note
t - trill
M - palm mute
. - staccato
P - popping (bass)
S - slapping (bass)
+ - tapping
W - wide vibrato
< - fade in
w - whammy bar
= - tremolo picking
v - brush up
^ - brush down
V - pick stroke up
n - pick stroke down


E |-------|--2-----------1--------------------------------2----|
B |-------|--------------------------4--1----------------------|
G |-------|--------------------------------------1-------------|
D |-------|----------------------------------------------------|
A |-------|----------------------------------------------------|
E |-------|----------------------------------------------------|


-----2--2-----1-----1-------------------------------|
--------------------------4--1----------------------|
----------------------------------------------------|
----------------------------------------------------|
----------------------------------------------------|
----------------------------------------------------|


--2-----------1-------------------------------------|
--------------------------4--1--------1-----1--1----|
----------------------------------------------------|
----------------------------------------------------|
----------------------------------------------------|
----------------------------------------------------|


----------------------------------------------------|
-----2--4-------------------------------------------|
--------------3-----1-----1-------------------------|
----------------------------------------------------|
----------------------------------------------------|
----------------------------------------------------|


--2-----------1--------------------------------2----|
--------------------------4--1----------------------|
--------------------------------------1-------------|
----------------------------------------------------|
----------------------------------------------------|
----------------------------------------------------|


-----2--2-----1-----1-------------------------------|
--------------------------4--1----------------------|
----------------------------------------------------|
----------------------------------------------------|
----------------------------------------------------|
----------------------------------------------------|


--2-----------1-------------------------------------|
--------------------------4--1--------1-----1--1----|
----------------------------------------------------|
----------------------------------------------------|
----------------------------------------------------|
----------------------------------------------------|


--------------------------------4-------------------|
-----2--4--------------------------1----------------|
--------------3-----1-----1-----------1-------------|
----------------------------------------------------|
----------------------------------------------------|
----------------------------------------------------|


----------------------------------------------------|
--------4--------4-----4-----4--4-----4-------------|
--------------------------------------------1-------|
----------------------------------------------------|
----------------------------------------------------|
----------------------------------------------------|


--------------------------------------4-------------|
--------4-----4--4-----4-----4--4-------------------|
----------------------------------------------------|
----------------------------------------------------|
----------------------------------------------------|
----------------------------------------------------|


----------------------------------------------------|
--------4--------4-----4-----4--4-----4-------------|
--------------------------------------------1-------|
----------------------------------------------------|
----------------------------------------------------|
----------------------------------------------------|


-----1--4--6--11------------|
--4-------------------------|
-----------------------8----|
----------------------------|
----------------------------|
----------------------------|


--8--------6-----4--------3--------1----------------|----------------|
-----------------------------------------4----------|--1-------------|
----------------------------------------------------|----------------|
----------------------------------------------------|----------------|
----------------------------------------------------|----------------|
----------------------------------------------------|----------------|


--8--------6-----4--------3--------1----------------|
--------------------------------------------4-------|
----------------------------------------------------|
----------------------------------------------------|
----------------------------------------------------|
----------------------------------------------------|


--1--3--4-----6--------8L-8--------------------8L---|
----------------------------------------------------|
----------------------------------------------------|
----------------------------------------------------|
----------------------------------------------------|
----------------------------------------------------|


--8--6--4-----4-----4--------------------------8L---|
--------------------------4-----------4--4----------|
----------------------------------------------------|
----------------------------------------------------|
----------------------------------------------------|
----------------------------------------------------|


--8--6--4-----4-----4-----4--6----------------------|
----------------------------------------------------|
----------------------------------------------------|
----------------------------------------------------|
----------------------------------------------------|
----------------------------------------------------|


--8--------6-----4--------3--------1----------------|
-----------------------------------------4----------|
----------------------------------------------------|
----------------------------------------------------|
----------------------------------------------------|
----------------------------------------------------|


--------------------------4--6--------8-------------|
--1-----------4--6----------------------------------|
----------------------------------------------------|
----------------------------------------------------|
----------------------------------------------------|
----------------------------------------------------|


--------------1--------------------------------2----|
--7-----------------------4--1----------------------|
--------------------------------------1-------------|
----------------------------------------------------|
----------------------------------------------------|
----------------------------------------------------|

www.chordzone.org
 

-----2--2-----1-----1-------------------------------|
--------------------------4--1----------------------|
----------------------------------------------------|
----------------------------------------------------|
----------------------------------------------------|
----------------------------------------------------|


--2-----------1--------------------------------2----|
--------------------------4--1----------------------|
--------------------------------------1-----1-------|
----------------------------------------------------|
----------------------------------------------------|
----------------------------------------------------|


-----2--2-----4-----4-----4--2----------------------|
--------------------------------4--2----------------|
--------------------------------------3--1----------|
----------------------------------------------------|
----------------------------------------------------|
----------------------------------------------------|


--2-----------1--------------------------------2----|
--------------------------4--1----------------------|
--------------------------------------1-------------|
----------------------------------------------------|
----------------------------------------------------|
----------------------------------------------------|


-----2--2-----1-----1-------------------------------|
--------------------------4--1----------------------|
----------------------------------------------------|
----------------------------------------------------|
----------------------------------------------------|
----------------------------------------------------|


--2-----------1-------------------------------------|
--------------------------4--1--------1-----1--1----|
----------------------------------------------------|
----------------------------------------------------|
----------------------------------------------------|
----------------------------------------------------|


--------------------------------4-------------------|
-----2--4--------------------------1----------------|
--------------3-----1-----1-----------1-------------|
----------------------------------------------------|
----------------------------------------------------|
----------------------------------------------------|


----------------------------------------------------|
--------4--------4-----4-----4--4-----4-------------|
--------------------------------------------1-------|
----------------------------------------------------|
----------------------------------------------------|
----------------------------------------------------|


--------------------------------------4-------------|
--------4-----4--4-----4-----4--4-------------------|
----------------------------------------------------|
----------------------------------------------------|
----------------------------------------------------|
----------------------------------------------------|


----------------------------------------------------|
--------4--------4-----4-----4--4-----4-------------|
--------------------------------------------1-------|
----------------------------------------------------|
----------------------------------------------------|
----------------------------------------------------|


--------4--6--11------------|
--4--6----------------------|
-----------------------8----|
----------------------------|
----------------------------|
----------------------------|


--8--------6-----4--------3--------1----------------|----------------|
-----------------------------------------4----------|--1-------------|
----------------------------------------------------|----------------|
----------------------------------------------------|----------------|
----------------------------------------------------|----------------|
----------------------------------------------------|----------------|


--8--------6-----4--------3--------1----------------|
--------------------------------------------4-------|
----------------------------------------------------|
----------------------------------------------------|
----------------------------------------------------|
----------------------------------------------------|


--1--3--4-----6--------8L-8--------------------8L---|
----------------------------------------------------|
----------------------------------------------------|
----------------------------------------------------|
----------------------------------------------------|
----------------------------------------------------|


--8--6--4-----4-----4--------------------------8L---|
--------------------------4-----------4--4----------|
----------------------------------------------------|
----------------------------------------------------|
----------------------------------------------------|
----------------------------------------------------|


--8--6--4-----4-----4-----4--6----------------------|
----------------------------------------------------|
----------------------------------------------------|
----------------------------------------------------|
----------------------------------------------------|
----------------------------------------------------|


--8--------6-----4--------3--------1----------------|
-----------------------------------------4----------|
----------------------------------------------------|
----------------------------------------------------|
----------------------------------------------------|
----------------------------------------------------|


--------------------------4--6--------8L------------|--8-------------|
--1-----------4--6----------------------------------|----------------|
----------------------------------------------------|----------------|
----------------------------------------------------|----------------|
----------------------------------------------------|----------------|
----------------------------------------------------|----------------|


--2-----------1--------------------------------2----|
--------------------------4--1----------------------|
--------------------------------------1-------------|
----------------------------------------------------|
----------------------------------------------------|
----------------------------------------------------|


-----2--2-----1-----1-------------------------------|
--------------------------4--1----------------------|
----------------------------------------------------|
----------------------------------------------------|
----------------------------------------------------|
----------------------------------------------------|


--2-----------1-------------------------------------|
--------------------------4--1--------1-----1--1----|
----------------------------------------------------|
----------------------------------------------------|
----------------------------------------------------|
----------------------------------------------------|


----------------------------------------------------|
-----2--4-------------------------------------------|
--------------3-----1-----1-------------------------|
----------------------------------------------------|
----------------------------------------------------|
----------------------------------------------------|


--2-----------1--------------------------------2----|
--------------------------4--1----------------------|
--------------------------------------1-------------|
----------------------------------------------------|
----------------------------------------------------|
----------------------------------------------------|


-----2--2-----1-----1-------------------------------|
--------------------------4--1----------------------|
----------------------------------------------------|
----------------------------------------------------|
----------------------------------------------------|
----------------------------------------------------|


--2-----------1-------------------------------------|
--------------------------4--1--------1-----1--1----|
----------------------------------------------------|
----------------------------------------------------|
----------------------------------------------------|
----------------------------------------------------|


--------------------------------4-------------------|
-----2--4--------------------------1----------------|
--------------3-----1-----1-----------1-------------|
----------------------------------------------------|
----------------------------------------------------|
----------------------------------------------------|


----------------------------------------------------|
--------4--------4-----4-----4--4-----4-------------|
--------------------------------------------1-------|
----------------------------------------------------|
----------------------------------------------------|
----------------------------------------------------|


--------------------------------------4-------------|
--------4-----4--4-----4-----4--4-------------------|
----------------------------------------------------|
----------------------------------------------------|
----------------------------------------------------|
----------------------------------------------------|


----------------------------------------------------|
--------4--------4-----4-----4--4-----4-------------|
--------------------------------------------1-------|
----------------------------------------------------|
----------------------------------------------------|
----------------------------------------------------|


--------4--6--11------------|
--4--6----------------------|
-----------------------8----|
----------------------------|
----------------------------|
----------------------------|


--8--------6-----4--------3--------1----------------|----------------|
-----------------------------------------4----------|--1-------------|
----------------------------------------------------|----------------|
----------------------------------------------------|----------------|
----------------------------------------------------|----------------|
----------------------------------------------------|----------------|


--8--------6-----4--------3--------1----------------|
--------------------------------------------4-------|
----------------------------------------------------|
----------------------------------------------------|
----------------------------------------------------|
----------------------------------------------------|


--1--3--4-----6--------8L-8--------------------8L---|
----------------------------------------------------|
----------------------------------------------------|
----------------------------------------------------|
----------------------------------------------------|
----------------------------------------------------|


--8--6--4-----4-----4--------------------------8L---|
--------------------------4-----------4--4----------|
----------------------------------------------------|
----------------------------------------------------|
----------------------------------------------------|
----------------------------------------------------|


--8--6--4-----4-----4-----4--6----------------------|
----------------------------------------------------|
----------------------------------------------------|
----------------------------------------------------|
----------------------------------------------------|
----------------------------------------------------|


--8--------6-----4--------3--------1----------------|
-----------------------------------------4----------|
----------------------------------------------------|
----------------------------------------------------|
----------------------------------------------------|
----------------------------------------------------|


--------------------------4--6--------8-------------|
--1-----------4--6----------------------------------|
----------------------------------------------------|
----------------------------------------------------|
----------------------------------------------------|
----------------------------------------------------|


--------------1--------------------------------2----|
--7-----------------------4--1----------------------|
--------------------------------------1-------------|
----------------------------------------------------|
----------------------------------------------------|
----------------------------------------------------|


-----2--2-----1-----1-------------------------------|
--------------------------4--1----------------------|
----------------------------------------------------|
----------------------------------------------------|
----------------------------------------------------|
----------------------------------------------------|


--2-----------1--------------------------------2----|
--------------------------4--1----------------------|
--------------------------------------1-----1-------|
----------------------------------------------------|
----------------------------------------------------|
----------------------------------------------------|


-----2--2-----4-----4-----4--2----------------------|
--------------------------------4--2----------------|
--------------------------------------3--1----------|
----------------------------------------------------|
----------------------------------------------------|
----------------------------------------------------|


--2-----------1--------------------------------2----|
--------------------------4--1----------------------|
--------------------------------------1L-------1----|
----------------------------------------------------|
----------------------------------------------------|
----------------------------------------------------|


-----2--2-----1-----1-------------------------------|
--------------------------4--1----------------------|
----------------------------------------------------|
----------------------------------------------------|
----------------------------------------------------|
----------------------------------------------------|


--2-----------1-------------------------------------|
--------------------------4--1--------1-----1--1----|
----------------------------------------------------|
----------------------------------------------------|
----------------------------------------------------|
----------------------------------------------------|


--------------------------------4-------------------|
-----2--4--------------------------1----------------|
--------------3-----1-----1-----------1-------------|
----------------------------------------------------|
----------------------------------------------------|
----------------------------------------------------|


----------------------------------------------------|
--------4--------4-----4-----4--4-----4-------------|
--------------------------------------------1-------|
----------------------------------------------------|
----------------------------------------------------|
----------------------------------------------------|


--------------------------------------4-------------|
--------4-----4--4-----4-----4--4-------------------|
----------------------------------------------------|
----------------------------------------------------|
----------------------------------------------------|
----------------------------------------------------|


----------------------------------------------------|
--------4--------4-----4-----4--4-----4-------------|
--------------------------------------------1-------|
----------------------------------------------------|
----------------------------------------------------|
----------------------------------------------------|


--------4--6--11------------|
--4--6----------------------|
-----------------------8----|
----------------------------|
----------------------------|
----------------------------|


--8--------6-----4--------3--------1----------------|----------------|
-----------------------------------------4----------|--1-------------|
----------------------------------------------------|----------------|
----------------------------------------------------|----------------|
----------------------------------------------------|----------------|
----------------------------------------------------|----------------|


--8--------6-----4--------3--------1----------------|
--------------------------------------------4-------|
----------------------------------------------------|
----------------------------------------------------|
----------------------------------------------------|
----------------------------------------------------|


--1--3--4-----6--------8L-8--------------------8L---|
----------------------------------------------------|
----------------------------------------------------|
----------------------------------------------------|
----------------------------------------------------|
----------------------------------------------------|


--8--6--4-----4-----4--------------------------8L---|
--------------------------4-----------4--4----------|
----------------------------------------------------|
----------------------------------------------------|
----------------------------------------------------|
----------------------------------------------------|


--8--6--4-----4-----4-----4--6----------------------|
----------------------------------------------------|
----------------------------------------------------|
----------------------------------------------------|
----------------------------------------------------|
----------------------------------------------------|


--8--------6-----4--------3--------1----------------|
-----------------------------------------4----------|
----------------------------------------------------|
----------------------------------------------------|
----------------------------------------------------|
----------------------------------------------------|

www.chordzone.org
 

--------------------------4--6--------8L------------|
--1-----------4--6----------------------------------|
----------------------------------------------------|
----------------------------------------------------|
----------------------------------------------------|
----------------------------------------------------|


--8L----------------------8-------------------------||
----------------------------------------------------||
----------------------------------------------------||
----------------------------------------------------||
----------------------------------------------------||
----------------------------------------------------||


Recommended for you:


POPULAR SONGS

RELATED SONGS