Now Reading
THE VAMPS – What Your Father Said Guitar Tabs

THE VAMPS – What Your Father Said Guitar Tabs

Enable Light Mode
#
A+
A-

This song is from the album Night & Day (Day Edition)(2018), released on 13 July 2018. The vocals are by The Vamps, the music is produced by Bradley Simpson, Connor Ball, and the lyrics are written by Captain Cuts.
This song is originally in the key of F Major. You can change it to any key you want, using the Transpose option. The average tempo is 95 BPM. These chords are simple and easy to play on the guitar, ukulele or piano.

Click here for the chords and lyrics version

 
Original Key: F Major
Time Signature: 4/4
Tempo: 95
Suggested Strumming: DU,DU,DU,DU
c h o r d  z o n e . o r g


Legend
L - tied note
x - dead note
h - hammer on/pull off
b - bend
s - slide
~ - vibrato
g - ghost note
> - accentuated note
t - trill
M - palm mute
. - staccato
P - popping (bass)
S - slapping (bass)
+ - tapping
W - wide vibrato
< - fade in
w - whammy bar
= - tremolo picking
v - brush up
^ - brush down
V - pick stroke up
n - pick stroke down


E |-------|--6--------8--------6--------8--------4-------------|
B |-------|----------------------------------------------------|
G |-------|----------------------------------------------------|
D |-------|----------------------------------------------------|
A |-------|----------------------------------------------------|
E |-------|----------------------------------------------------|


--4--------4--------------------------1-------------|
--------------------6--------4--------------1-------|
----------------------------------------------------|
----------------------------------------------------|
----------------------------------------------------|
----------------------------------------------------|


--6--------8--------6--------8--------4-------------|
----------------------------------------------------|
----------------------------------------------------|
----------------------------------------------------|
----------------------------------------------------|
----------------------------------------------------|


--4--------4----------------------------------------|
--------------------6--------4--------4--4--4-------|
----------------------------------------------------|
----------------------------------------------------|
----------------------------------------------------|
----------------------------------------------------|


--------6-----8-----6--6--6--6--6--8-----6--4-------|
----------------------------------------------------|
----------------------------------------------------|
----------------------------------------------------|
----------------------------------------------------|
----------------------------------------------------|


--4--4--4--6-----4-----3L-3-------------------------|
--------------------------------------4--4--4-------|
----------------------------------------------------|
----------------------------------------------------|
----------------------------------------------------|
----------------------------------------------------|


--------6-----8-----6--6--6--6--6--8-----6--4-------|
----------------------------------------------------|
----------------------------------------------------|
----------------------------------------------------|
----------------------------------------------------|
----------------------------------------------------|


--4--4--4--6-----4--------------8-----11----13L-----|
-----------------------8----------------------------|
----------------------------------------------------|
----------------------------------------------------|
----------------------------------------------------|
----------------------------------------------------|


--13-------15-13-------11-8-----------8-----8-------|
----------------------------------------------------|
----------------------------------------------------|
----------------------------------------------------|
----------------------------------------------------|
----------------------------------------------------|


--6--------------8--11-13L--|
----------------------------|
----------------------------|
----------------------------|
----------------------------|
----------------------------|


--13-------15-13-------11-8-----------8-----8-------|
----------------------------------------------------|
----------------------------------------------------|
----------------------------------------------------|
----------------------------------------------------|
----------------------------------------------------|


--6-------------------------------------------------|
--------------------------------------4--4--4-------|
----------------------------------------------------|
----------------------------------------------------|
----------------------------------------------------|
----------------------------------------------------|


--------6-----8-----6--6--6--6--6--8-----6--4-------|
----------------------------------------------------|
----------------------------------------------------|
----------------------------------------------------|
----------------------------------------------------|
----------------------------------------------------|


--4--4--4--6-----4-----3L-3-------------------------|
--------------------------------------4--4--4-------|
----------------------------------------------------|
----------------------------------------------------|
----------------------------------------------------|
----------------------------------------------------|


--------6-----8-----6--6--6--6--6--8-----6--4-------|
----------------------------------------------------|
----------------------------------------------------|
----------------------------------------------------|
----------------------------------------------------|
----------------------------------------------------|


--4--4--4--6-----4-----3--------8-----11----13L-----|
----------------------------------------------------|
----------------------------------------------------|
----------------------------------------------------|
----------------------------------------------------|
----------------------------------------------------|


--13-------15-13-------11-8-----------8-----8-------|
----------------------------------------------------|
----------------------------------------------------|
----------------------------------------------------|
----------------------------------------------------|
----------------------------------------------------|


--6--------------------------------------------6L---|
--------------------------------------6--6----------|
----------------------------------------------------|
----------------------------------------------------|
----------------------------------------------------|
----------------------------------------------------|


--6--------6--------4--1L-1--------------------6L---|
--------------------------------------6--6----------|
----------------------------------------------------|
----------------------------------------------------|
----------------------------------------------------|
----------------------------------------------------|


--6--------8--6--4-----6L-6-----------------4--4----|
----------------------------------------------------|
----------------------------------------------------|
----------------------------------------------------|
----------------------------------------------------|
----------------------------------------------------|


--4-----6-----6--------4--4-------------------------|
--------------------------------6L----6-------------|
----------------------------------------------------|
----------------------------------------------------|
----------------------------------------------------|
----------------------------------------------------|


--------------------4--6----|
-----------------6----------|
----------------------------|
----------------------------|
----------------------------|
----------------------------|


--6-----6-----6-----6--6-----4-----1L-1-------------|
----------------------------------------------------|
----------------------------------------------------|
----------------------------------------------------|
----------------------------------------------------|
----------------------------------------------------|


--1-----4-----6-----1--1-----4--4-----6-------------|
--------------------------------------------4-------|
----------------------------------------------------|
----------------------------------------------------|
----------------------------------------------------|
----------------------------------------------------|


--------4-----6-----------------4-----6-----4-------|
--4-----------------4--4-----4----------------------|
----------------------------------------------------|
----------------------------------------------------|
----------------------------------------------------|
----------------------------------------------------|


--4-----6-----6-----6--6-----4--4-----1-------------|
----------------------------------------------------|
----------------------------------------------------|
----------------------------------------------------|
----------------------------------------------------|
----------------------------------------------------|


--------------------4--6-----6-----6-----6--6L------|
----------------------------------------------------|
----------------------------------------------------|
----------------------------------------------------|
----------------------------------------------------|
----------------------------------------------------|

www.chordzone.org
 

--6-----4--4L-4-------------------------------------|-------|
----------------------------------------------------|-------|
----------------------------------------------------|-------|
----------------------------------------------------|-------|
----------------------------------------------------|-------|
----------------------------------------------------|-------|


--6--------8--------6--------8--------4-------------|
----------------------------------------------------|
----------------------------------------------------|
----------------------------------------------------|
----------------------------------------------------|
----------------------------------------------------|


--4--------4--------------------------1-------------|
--------------------6--------4--------------1-------|
----------------------------------------------------|
----------------------------------------------------|
----------------------------------------------------|
----------------------------------------------------|


--6--------8--------6--------8--------4-------------|
----------------------------------------------------|
----------------------------------------------------|
----------------------------------------------------|
----------------------------------------------------|
----------------------------------------------------|


--4--------4----------------------------------------|
--------------------6--------4--------4--4--4-------|
----------------------------------------------------|
----------------------------------------------------|
----------------------------------------------------|
----------------------------------------------------|


--------6-----8-----6--6--6--6--6--8-----6--4-------|
----------------------------------------------------|
----------------------------------------------------|
----------------------------------------------------|
----------------------------------------------------|
----------------------------------------------------|


--4--4--4--6-----4-----3L-3-------------------------|
--------------------------------------4--4--4-------|
----------------------------------------------------|
----------------------------------------------------|
----------------------------------------------------|
----------------------------------------------------|


--------6-----8-----6--6--6--6--6--8-----6--4-------|
----------------------------------------------------|
----------------------------------------------------|
----------------------------------------------------|
----------------------------------------------------|
----------------------------------------------------|


--4--4--4--6-----4-----3--------8-----11----13L-----|
----------------------------------------------------|
----------------------------------------------------|
----------------------------------------------------|
----------------------------------------------------|
----------------------------------------------------|


--13-------15-13-------11-8-----------8-----8-------|
----------------------------------------------------|
----------------------------------------------------|
----------------------------------------------------|
----------------------------------------------------|
----------------------------------------------------|


--6--------------8--11-13L--|
----------------------------|
----------------------------|
----------------------------|
----------------------------|
----------------------------|


--13-------15-13-------11-8-----------8-----8-------|
----------------------------------------------------|
----------------------------------------------------|
----------------------------------------------------|
----------------------------------------------------|
----------------------------------------------------|


--6-------------------------------------------------|
--------------------------------------4--4--4-------|
----------------------------------------------------|
----------------------------------------------------|
----------------------------------------------------|
----------------------------------------------------|


--------6-----8-----6--6--6--6--6--8-----6--4-------|
----------------------------------------------------|
----------------------------------------------------|
----------------------------------------------------|
----------------------------------------------------|
----------------------------------------------------|


--4--4--4--6-----4-----3L-3-------------------------|
--------------------------------------4--4--4-------|
----------------------------------------------------|
----------------------------------------------------|
----------------------------------------------------|
----------------------------------------------------|


--------6-----8-----6--6--6--6--6--8-----6--4-------|
----------------------------------------------------|
----------------------------------------------------|
----------------------------------------------------|
----------------------------------------------------|
----------------------------------------------------|


--4--4--4--6-----4--------------8-----11----13L-----|
-----------------------8----------------------------|
----------------------------------------------------|
----------------------------------------------------|
----------------------------------------------------|
----------------------------------------------------|

www.chordzone.org
 

--13-------15-13-------11-8-----------8-----8-------|
----------------------------------------------------|
----------------------------------------------------|
----------------------------------------------------|
----------------------------------------------------|
----------------------------------------------------|


--6-----------------------------------1--1-----6L---|
----------------------------------------------------|
----------------------------------------------------|
----------------------------------------------------|
----------------------------------------------------|
----------------------------------------------------|


--6--------6--------4--1L-1-----------1--1-----6L---|
----------------------------------------------------|
----------------------------------------------------|
----------------------------------------------------|
----------------------------------------------------|
----------------------------------------------------|


--6--------8--6--4-----6L-6-----------------4--4----|
----------------------------------------------------|
----------------------------------------------------|
----------------------------------------------------|
----------------------------------------------------|
----------------------------------------------------|


--4-----6-----6--------4--4-------------------------|
--------------------------------6L----6-------------|
----------------------------------------------------|
----------------------------------------------------|
----------------------------------------------------|
----------------------------------------------------|


--------------------4--6----|
-----------------6----------|
----------------------------|
----------------------------|
----------------------------|
----------------------------|


--6-----6-----6-----6--6-----4----------------------|
-----------------------------------6L-6-------------|
----------------------------------------------------|
----------------------------------------------------|
----------------------------------------------------|
----------------------------------------------------|


--------4-----6--------------4--4-----6-------------|
--6-----------------6--6--------------------4-------|
----------------------------------------------------|
----------------------------------------------------|
----------------------------------------------------|
----------------------------------------------------|


--------4-----6-----------------4-----6-----4-------|
--4-----------------4--4-----4----------------------|
----------------------------------------------------|
----------------------------------------------------|
----------------------------------------------------|
----------------------------------------------------|


--4-----6-----6-----6--6-----4--4-------------------|
--------------------------------------6-------------|
----------------------------------------------------|
----------------------------------------------------|
----------------------------------------------------|
----------------------------------------------------|


--------------------4--6-----6-----6-----6--6L------|
----------------------------------------------------|
----------------------------------------------------|
----------------------------------------------------|
----------------------------------------------------|
----------------------------------------------------|


--6-----4--4L-4-------------------------------------|-------||
----------------------------------------------------|-------||
----------------------------------------------------|-------||
----------------------------------------------------|-------||
----------------------------------------------------|-------||
----------------------------------------------------|-------||


Recommended for you:


Click to rate this post!
[Total: 0 Average: 0]

To The Top Get The Guitar Tabs

See Also