Now Reading
OLIVIA RODRIGO – Favorite Crime Guitar Tabs

OLIVIA RODRIGO – Favorite Crime Guitar Tabs

Enable Light Mode
#
A+
A-

This song is from the album SOUR(2021), released on 21 May 2021. The vocals are by Olivia Rodrigo, the music is produced by Olivia Rodrigo , Dan Nigro, and the lyrics are written by Dan Nigro.
This song is originally in the key of A Major. You can change it to any key you want, using the Transpose option. The average tempo is 85 BPM. These chords are simple and easy to play on the guitar, ukulele or piano.

Click here for the chords and lyrics version

 
Original Key: A Major
Time Signature: 4/4
Tempo: 85
Suggested Strumming: DU,DU,DU,DU
c h o r d  z o n e . o r g

Legend
L - tied note
x - dead note
h - hammer on/pull off
b - bend
s - slide
~ - vibrato
g - ghost note
> - accentuated note
t - trill
M - palm mute
. - staccato
P - popping (bass)
S - slapping (bass)
+ - tapping
W - wide vibrato
< - fade in
w - whammy bar
= - tremolo picking
v - brush up
^ - brush down
V - pick stroke up
n - pick stroke down


E |-------|--5--4--2--0--2-------------|--5--4--2--0--2-------------|
B |-------|-----------------2--2-------|-----------------2--2-------|
G |-------|----------------------------|----------------------------|
D |-------|----------------------------|----------------------------|
A |-------|----------------------------|----------------------------|
E |-------|----------------------------|----------------------------|


----------------------------------------------------|
--2--------2--2--------2--2-----0-----0-------------|
--------------------------------------------2-------|
----------------------------------------------------|
----------------------------------------------------|
----------------------------------------------------|

www.chordzone.org
 

----------------------------------------------------|
--0--2L-------2-------------------------------------|
----------------------------------------------------|
----------------------------------------------------|
----------------------------------------------------|
----------------------------------------------------|


--5--4--2--0--2-------------|--5--4--2--0--2-------------|
-----------------2--2-------|-----------------2--2-------|
----------------------------|----------------------------|
----------------------------|----------------------------|
----------------------------|----------------------------|
----------------------------|----------------------------|


----------------------------------------------------|
--2-----2-----2--------------------2L-2--0--0-------|
----------------------------------------------------|
----------------------------------------------------|
----------------------------------------------------|
----------------------------------------------------|


--------------------------------0--0-----0----------|----------------|
--0--2L-------2-------------------------------------|--0-------------|
----------------------------------------------------|----------------|
----------------------------------------------------|----------------|
----------------------------------------------------|----------------|
----------------------------------------------------|----------------|


----------------------------|----------------|
--3--2--0-----3-----2-------|----------------|
-----------2----------------|--2-------------|
----------------------------|-----4----------|
----------------------------|----------------|
----------------------------|----------------|


--------------------------------0--0-----0----------|----------------|
----------------------------------------------------|--0-------------|
----------------------------------------------------|----------------|
----------------------------------------------------|----------------|
----------------------------------------------------|----------------|
----------------------------------------------------|----------------|


----------------------------|----------|----------|
--3--2--------3-----2-------|----------|----------|
--------4--2----------------|--2--1----|--2-------|
----------------------------|----------|----------|
----------------------------|----------|----------|
----------------------------|----------|----------|


--5-----4-----2-----0-----2-------------------------|
--------------------------------2--2L-2-------------|
----------------------------------------------------|
----------------------------------------------------|
----------------------------------------------------|
----------------------------------------------------|


--5-----4-----2-----0-----2-------------------------|
--------------------------------2--2L-2-------------|
----------------------------------------------------|
----------------------------------------------------|
----------------------------------------------------|
----------------------------------------------------|


----------------------------------------------------|----------------|
--2--------2--2--------2--2-----------------3-------|--2-------------|
--------------------------------------2-------------|----------------|
----------------------------------------------------|----------------|
----------------------------------------------------|----------------|
----------------------------------------------------|----------------|


--5--4--2--0--2-------------|--5--4--2--0--2-------------|
-----------------2--2-------|-----------------2--2-------|
----------------------------|----------------------------|
----------------------------|----------------------------|
----------------------------|----------------------------|
----------------------------|----------------------------|


-----------------------0----------------------------|
--2--------2--2-----------0--------0--0-------------|
--------------------------------------------2L-2----|
----------------------------------------------------|
----------------------------------------------------|
----------------------------------------------------|


--------------------------------0--0-----0----------|----------------|
--0--2L-------2-------------------------------------|--0-------------|
----------------------------------------------------|----------------|
----------------------------------------------------|----------------|
----------------------------------------------------|----------------|
----------------------------------------------------|----------------|


----------------------------|----------------|
--3--2--0-----3-----2-------|----------------|
-----------2----------------|--2-------------|
----------------------------|-----4----------|
----------------------------|----------------|
----------------------------|----------------|


--------------------------------0--0-----0----------|----------------|
----------------------------------------------------|--0-------------|
----------------------------------------------------|----------------|
----------------------------------------------------|----------------|
----------------------------------------------------|----------------|
----------------------------------------------------|----------------|


----------------------------|----------|----------|
--3--2--0-----3-----2-------|----------|----------|
-----------2----------------|--2--1----|--2-------|
----------------------------|----------|----------|
----------------------------|----------|----------|
----------------------------|----------|----------|


-----0-----0-----0-----0--4--5--4--5--4-------------|
--2-----2-----2-----2-------------------------------|
----------------------------------------------------|
----------------------------------------------------|
----------------------------------------------------|
----------------------------------------------------|


-----0-----0-----0-----0--4--5--4--5--4-------------|
--2-----2-----2-----2-------------------------------|
----------------------------------------------------|
----------------------------------------------------|
----------------------------------------------------|
----------------------------------------------------|


-----0-----0-----0-----0--4--5--4--5--4-------------|--5--------4----|
--2-----2-----2-----2-------------------------------|----------------|
----------------------------------------------------|----------------|
----------------------------------------------------|----------------|
----------------------------------------------------|----------------|
----------------------------------------------------|----------------|


--5L----------------------5-----------9--7--5--4----|--5--4----|
-----------------------------------5----------------|----------|
----------------------------------------------------|----------|
----------------------------------------------------|----------|
----------------------------------------------------|----------|
----------------------------------------------------|----------|


--5-----------------------------12-12----12---------|----------------|
----------------------------------------------------|--12------------|
----------------------------------------------------|----------------|
----------------------------------------------------|----------------|
----------------------------------------------------|----------------|
----------------------------------------------------|----------------|


--10-9--7-----10----9-------|--5--2----------|
-----------10---------------|----------------|
----------------------------|----------------|
----------------------------|----------------|
----------------------------|----------------|
----------------------------|----------------|


--------------------------------12-12----12---------|----------------|
----------------------------------------------------|--12------------|
----------------------------------------------------|----------------|
----------------------------------------------------|----------------|
----------------------------------------------------|----------------|
----------------------------------------------------|----------------|


--10-9--7-----10----9-------|--5--4----|
-----------10---------------|----------|
----------------------------|----------|
----------------------------|----------|
----------------------------|----------|
----------------------------|----------|


--5-----------------------------10-9--------5-------|--5--4----|
----------------------------------------------------|----------|
----------------------------------------------------|----------|
----------------------------------------------------|----------|
----------------------------------------------------|----------|
----------------------------------------------------|----------|


--5-----------------------------10-9--------5-------|--5--4----|
----------------------------------------------------|----------|
----------------------------------------------------|----------|
----------------------------------------------------|----------|
----------------------------------------------------|----------|
----------------------------------------------------|----------|


--0-----------------------0-------------------------|----------|
--------------------------------2-----2--0----------|----------|
--------------------------------------------2L------|--2-------|
----------------------------------------------------|----------|
----------------------------------------------------|----------|
----------------------------------------------------|----------|


--5--4--2--0--2-------------|--5--4--2--0--2-------------|
-----------------2--2-------|-----------------2--2-------|
----------------------------|----------------------------|
----------------------------|----------------------------|
----------------------------|----------------------------|
----------------------------|----------------------------|


----------------------------------------------------|
--2--------2--2--------2--2-----0-----0-------------|
--------------------------------------------2-------|
----------------------------------------------------|
----------------------------------------------------|
----------------------------------------------------|


----------------------------------------------------|
--0--2L-------2-------------------------------------|
----------------------------------------------------|
----------------------------------------------------|
----------------------------------------------------|
----------------------------------------------------|


--5--4--2--0--2-------------|--5--4--2--0--2-------------|
-----------------2--2-------|-----------------2--2-------|
----------------------------|----------------------------|
----------------------------|----------------------------|
----------------------------|----------------------------|
----------------------------|----------------------------|


----------------------------------------------------|
--2-----2-----2--------------------2L-2--0--0-------|
----------------------------------------------------|
----------------------------------------------------|
----------------------------------------------------|
----------------------------------------------------|


--------------------------------0--0-----0----------|----------------|
--0--2L-------2-------------------------------------|--0-------------|
----------------------------------------------------|----------------|
----------------------------------------------------|----------------|
----------------------------------------------------|----------------|
----------------------------------------------------|----------------|


----------------------------|----------------|
--3--2--0-----3-----2-------|----------------|
-----------2----------------|--2-------------|
----------------------------|-----4----------|
----------------------------|----------------|
----------------------------|----------------|


--------------------------------0--0-----0----------|----------------|
----------------------------------------------------|--0-------------|
----------------------------------------------------|----------------|
----------------------------------------------------|----------------|
----------------------------------------------------|----------------|
----------------------------------------------------|----------------|


----------------------------|----------|----------|
--3--2--0-----3-----2-------|----------|----------|
-----------2----------------|--2--1----|--2-------|
----------------------------|----------|----------|
----------------------------|----------|----------|
----------------------------|----------|----------|


--5-----4-----2-----0-----2-------------------------|
--------------------------------2--2L-2-------------|
----------------------------------------------------|
----------------------------------------------------|
----------------------------------------------------|
----------------------------------------------------|


--5-----4-----2-----0-----2-------------------------|
--------------------------------2--2L-2-------------|
----------------------------------------------------|
----------------------------------------------------|
----------------------------------------------------|
----------------------------------------------------|


----------------------------------------------------|----------------|
--2--------2--2--------2--2-----------------3-------|--2-------------|
--------------------------------------2-------------|----------------|
----------------------------------------------------|----------------|
----------------------------------------------------|----------------|
----------------------------------------------------|----------------|


--5--4--2--0--2-------------|--5--4--2--0--2-------------|
-----------------2--2-------|-----------------2--2-------|
----------------------------|----------------------------|
----------------------------|----------------------------|
----------------------------|----------------------------|
----------------------------|----------------------------|


-----------------------0----------------------------|
--2--------2--2-----------0--------0--0-------------|
--------------------------------------------2L-2----|
----------------------------------------------------|
----------------------------------------------------|
----------------------------------------------------|


--------------------------------0--0-----0----------|----------------|
--0--2L-------2-------------------------------------|--0-------------|
----------------------------------------------------|----------------|
----------------------------------------------------|----------------|
----------------------------------------------------|----------------|
----------------------------------------------------|----------------|


----------------------------|----------------|
--3--2--0-----3-----2-------|----------------|
-----------2----------------|--2-------------|
----------------------------|-----4----------|
----------------------------|----------------|
----------------------------|----------------|


--------------------------------0--0-----0----------|----------------|
----------------------------------------------------|--0-------------|
----------------------------------------------------|----------------|
----------------------------------------------------|----------------|
----------------------------------------------------|----------------|
----------------------------------------------------|----------------|


----------------------------|----------|----------|
--3--2--0-----3-----2-------|----------|----------|
-----------2----------------|--2--1----|--2-------|
----------------------------|----------|----------|
----------------------------|----------|----------|
----------------------------|----------|----------|


-----0-----0-----0-----0--4--5--4--5--4-------------|
--2-----2-----2-----2-------------------------------|
----------------------------------------------------|
----------------------------------------------------|
----------------------------------------------------|
----------------------------------------------------|


-----0-----0-----0-----0--4--5--4--5--4-------------|
--2-----2-----2-----2-------------------------------|
----------------------------------------------------|
----------------------------------------------------|
----------------------------------------------------|
----------------------------------------------------|


-----0-----0-----0-----0--4--5--4--5--4-------------|--5--------4----|
--2-----2-----2-----2-------------------------------|----------------|
----------------------------------------------------|----------------|
----------------------------------------------------|----------------|
----------------------------------------------------|----------------|
----------------------------------------------------|----------------|


--5L----------------------5-----------9--7--5--4----|--5--4----|
-----------------------------------5----------------|----------|
----------------------------------------------------|----------|
----------------------------------------------------|----------|
----------------------------------------------------|----------|
----------------------------------------------------|----------|


--5-----------------------------12-12----12---------|----------------|
----------------------------------------------------|--12------------|
----------------------------------------------------|----------------|
----------------------------------------------------|----------------|
----------------------------------------------------|----------------|
----------------------------------------------------|----------------|


--10-9--7-----10----9-------|--5--2----------|
-----------10---------------|----------------|
----------------------------|----------------|
----------------------------|----------------|
----------------------------|----------------|
----------------------------|----------------|


--------------------------------12-12----12---------|----------------|
----------------------------------------------------|--12------------|
----------------------------------------------------|----------------|
----------------------------------------------------|----------------|
----------------------------------------------------|----------------|
----------------------------------------------------|----------------|


--10-9--7-----10----9-------|--5--4----|
-----------10---------------|----------|
----------------------------|----------|
----------------------------|----------|
----------------------------|----------|
----------------------------|----------|

www.chordzone.org
 

--5-----------------------------10-9--------5-------|--5--4----|
----------------------------------------------------|----------|
----------------------------------------------------|----------|
----------------------------------------------------|----------|
----------------------------------------------------|----------|
----------------------------------------------------|----------|


--5-----------------------------10-9--------5-------|--5--4----|
----------------------------------------------------|----------|
----------------------------------------------------|----------|
----------------------------------------------------|----------|
----------------------------------------------------|----------|
----------------------------------------------------|----------|


--0-----------------------0-------------------------|----------||
--------------------------------2-----2-------------|----------||
-----------------------------------------4--2L------|--2-------||
----------------------------------------------------|----------||
----------------------------------------------------|----------||
----------------------------------------------------|----------||


Recommended for you:


Click to rate this post!
[Total: 0 Average: 0]

To The Top Get The Guitar Tabs

See Also