Now Reading
TULSI KUMAR feat DARSHAN RAVAL – Is Qadar Guitar Tabs

TULSI KUMAR feat DARSHAN RAVAL – Is Qadar Guitar Tabs

Enable Light Mode
#
A+
A-

This single was released on 09 April 2021. The vocals are by Darshan Raval, Tulsi Kumar, the music is produced by Sayeed Quadri, and the lyrics are written by Sachet-Parampara.
This song is originally in the key of F# Minor. You can change it to any key you want, using the Transpose option. The average tempo is 88 BPM. These chords are simple and easy to play on the guitar, ukulele or piano.

Click here for the chords and lyrics version

 
Original Key: F# Minor
Time Signature: 4/4
Tempo: 88
Suggested Strumming: DU,DU,DU,DU
c h o r d  z o n e . o r g

Legend
L - tied note
x - dead note
h - hammer on/pull off
b - bend
s - slide
~ - vibrato
g - ghost note
> - accentuated note
t - trill
M - palm mute
. - staccato
P - popping (bass)
S - slapping (bass)
+ - tapping
W - wide vibrato
< - fade in
w - whammy bar
= - tremolo picking
v - brush up
^ - brush down
V - pick stroke up
n - pick stroke down


E |-------|--2-----5-----9-----12----10-------9--------7L------|
B |-------|----------------------------------------------------|
G |-------|----------------------------------------------------|
D |-------|----------------------------------------------------|
A |-------|----------------------------------------------------|
E |-------|----------------------------------------------------|


--7--4--------7-------------|
--------7--5----------------|
----------------------------|
----------------------------|
----------------------------|
----------------------------|


--0-----4-----7-----9-----7--------4--------0-------|
----------------------------------------------------|
----------------------------------------------------|
----------------------------------------------------|
----------------------------------------------------|
----------------------------------------------------|

www.chordzone.org
 

-----9--4--5--2-------------|
----------------------------|
----------------------------|
----------------------------|
----------------------------|
----------------------------|


--2-----5-----9-----12----10-------9--------7L------|
----------------------------------------------------|
----------------------------------------------------|
----------------------------------------------------|
----------------------------------------------------|
----------------------------------------------------|


--7--4--------7-------------|
--------7--5----------------|
----------------------------|
----------------------------|
----------------------------|
----------------------------|


--0-----4-----7-----9-----7--------4--------0-------|
----------------------------------------------------|
----------------------------------------------------|
----------------------------------------------------|
----------------------------------------------------|
----------------------------------------------------|


-----9--4--5--2--------2----|--4--5--5--4--0--4--4--2----|
--------------------2-------|----------------------------|
----------------------------|----------------------------|
----------------------------|----------------------------|
----------------------------|----------------------------|
----------------------------|----------------------------|


--------------0-----0-----2-----------------2-------|
--3--------3--------------------------2-------------|
----------------------------------------------------|
----------------------------------------------------|
----------------------------------------------------|
----------------------------------------------------|


--4--5--5--4--0--4--4--2----|
----------------------------|
----------------------------|
----------------------------|
----------------------------|
----------------------------|


--------------0-----0-------------------------------|
--3--------3--------------7-------------------------|
----------------------------------------------------|
----------------------------------------------------|
----------------------------------------------------|
----------------------------------------------------|


--2-----5-----9-----12----10-------9--------7L------|
----------------------------------------------------|
----------------------------------------------------|
----------------------------------------------------|
----------------------------------------------------|
----------------------------------------------------|


--7--9--4--5--2--------2----|--4--5--5--4--0--4--4--2----|
--------------------2-------|----------------------------|
----------------------------|----------------------------|
----------------------------|----------------------------|
----------------------------|----------------------------|
----------------------------|----------------------------|


--------------0-----0-----2-----------------2-------|
--3--------3--------------------------2-------------|
----------------------------------------------------|
----------------------------------------------------|
----------------------------------------------------|
----------------------------------------------------|


--4--5--5--4--0--4--4--2----|
----------------------------|
----------------------------|
----------------------------|
----------------------------|
----------------------------|


--------------0-----0-----2-------------------------|
--3--------3----------------------------------------|
----------------------------------------------------|
----------------------------------------------------|
----------------------------------------------------|
----------------------------------------------------|


-----------9--7--------7--5--------7--5-----4L------|
--7-------------------------------------------------|
----------------------------------------------------|
----------------------------------------------------|
----------------------------------------------------|
----------------------------------------------------|


--4-----0--2-----5-----4--4-----------------2-------|
--------------------------------------2-------------|
----------------------------------------------------|
----------------------------------------------------|
----------------------------------------------------|
----------------------------------------------------|


--4--5--5--4-----4--4--2----|
--------------5-------------|
----------------------------|
----------------------------|
----------------------------|
----------------------------|


-----------------0-----0--2-----------------2-------|
--------3-----3-----------------------2-------------|
----------------------------------------------------|
----------------------------------------------------|
----------------------------------------------------|
----------------------------------------------------|


--4--5--5--4--0--4--4--2----|
----------------------------|
----------------------------|
----------------------------|
----------------------------|
----------------------------|


-----------------0-----0--2-------------------------|
--------3-----3-------------------------------------|
----------------------------------------------------|
----------------------------------------------------|
----------------------------------------------------|
----------------------------------------------------|


--2--------9--7--------7--5--------7--5-----4L------|
----------------------------------------------------|
----------------------------------------------------|
----------------------------------------------------|
----------------------------------------------------|
----------------------------------------------------|


--4-----0--2-----5--------4-----------------2-------|
--------------------------------------2-------------|
----------------------------------------------------|
----------------------------------------------------|
----------------------------------------------------|
----------------------------------------------------|


--4--5--5--4--0--4--4--2----|
----------------------------|
----------------------------|
----------------------------|
----------------------------|
----------------------------|


--------------0-----0-----2-----------------2-------|
--3--------3--------------------------2-------------|
----------------------------------------------------|
----------------------------------------------------|
----------------------------------------------------|
----------------------------------------------------|


--4--5--5--4--0--4--4--2----|
----------------------------|
----------------------------|
----------------------------|
----------------------------|
----------------------------|


--------------0-----0-----2-------------------------|-------|
--3--------3----------------------------------------|-------|
----------------------------------------------------|-------|
----------------------------------------------------|-------|
----------------------------------------------------|-------|
----------------------------------------------------|-------|


--2-----5-----9-----12----10-------9--------7L------|
----------------------------------------------------|
----------------------------------------------------|
----------------------------------------------------|
----------------------------------------------------|
----------------------------------------------------|


--7--4--2--0--7-------------|
----------------------------|
----------------------------|
----------------------------|
----------------------------|
----------------------------|


--0-----4-----7-----9-----7--------4--------0-------|
----------------------------------------------------|
----------------------------------------------------|
----------------------------------------------------|
----------------------------------------------------|
----------------------------------------------------|


-----9--4--5--2-------------|
----------------------------|
----------------------------|
----------------------------|
----------------------------|
----------------------------|


--2-----5-----9-----12----10-------9--------7L------|
----------------------------------------------------|
----------------------------------------------------|
----------------------------------------------------|
----------------------------------------------------|
----------------------------------------------------|


--7--4--2--0--7-------------|
----------------------------|
----------------------------|
----------------------------|
----------------------------|
----------------------------|


--0-----4-----7-----9-----7--------4--------0-------|
----------------------------------------------------|
----------------------------------------------------|
----------------------------------------------------|
----------------------------------------------------|
----------------------------------------------------|


-----9--4--5--2--------2----|--4--5--5--4--0--4--4--2----|
--------------------2-------|----------------------------|
----------------------------|----------------------------|
----------------------------|----------------------------|
----------------------------|----------------------------|
----------------------------|----------------------------|


--------------0-----0-----2-----------------2-------|
--3--------3--------------------------2-------------|
----------------------------------------------------|
----------------------------------------------------|
----------------------------------------------------|
----------------------------------------------------|


--4--5--5--4--0--4--4--2----|
----------------------------|
----------------------------|
----------------------------|
----------------------------|
----------------------------|


--------------0-----0-----2-------------------------|
--3--------3----------------------------------------|
----------------------------------------------------|
----------------------------------------------------|
----------------------------------------------------|
----------------------------------------------------|


--2-----5-----9-----12----10-------9--------7L------|
----------------------------------------------------|
----------------------------------------------------|
----------------------------------------------------|
----------------------------------------------------|
----------------------------------------------------|


--7--9--4--5--2--------2----|--4--5--5--4--0--4--4--2----|
--------------------2-------|----------------------------|
----------------------------|----------------------------|
----------------------------|----------------------------|
----------------------------|----------------------------|
----------------------------|----------------------------|


--------------0-----0-----2-----------------2-------|
--3--------3--------------------------2-------------|
----------------------------------------------------|
----------------------------------------------------|
----------------------------------------------------|
----------------------------------------------------|


--4--5--5--4--0--4--4--2----|
----------------------------|
----------------------------|
----------------------------|
----------------------------|
----------------------------|


--------------0-----0-----2-------------------------|
--3--------3----------------------------------------|
----------------------------------------------------|
----------------------------------------------------|
----------------------------------------------------|
----------------------------------------------------|


--2--------9--7--------7--5--------7--5-----4L------|
----------------------------------------------------|
----------------------------------------------------|
----------------------------------------------------|
----------------------------------------------------|
----------------------------------------------------|


--4-----0--2-----5-----4--4-----------------2-------|
--------------------------------------2-------------|
----------------------------------------------------|
----------------------------------------------------|
----------------------------------------------------|
----------------------------------------------------|


--4--5--5--4--0--4--4--2----|
----------------------------|
----------------------------|
----------------------------|
----------------------------|
----------------------------|


-----------------0-----0--2-----------------2-------|
--------3-----3-----------------------2-------------|
----------------------------------------------------|
----------------------------------------------------|
----------------------------------------------------|
----------------------------------------------------|


--4--5--5--4--0--4--4--2----|
----------------------------|
----------------------------|
----------------------------|
----------------------------|
----------------------------|


-----------------0-----0--2-------------------------|
--------3-----3-------------------------------------|
----------------------------------------------------|
----------------------------------------------------|
----------------------------------------------------|
----------------------------------------------------|


-----------9--7--------7--5--------7--5-----4L------|
--7-------------------------------------------------|
----------------------------------------------------|
----------------------------------------------------|
----------------------------------------------------|
----------------------------------------------------|


--4-----0--2-----5--------4-----------------2-------|
--------------------------------------2-------------|
----------------------------------------------------|
----------------------------------------------------|
----------------------------------------------------|
----------------------------------------------------|


--4--5--5--4--0--4--4--2----|
----------------------------|
----------------------------|
----------------------------|
----------------------------|
----------------------------|


--------------0-----0-----2-----------------2-------|
--3--------3--------------------------2-------------|
----------------------------------------------------|
----------------------------------------------------|
----------------------------------------------------|
----------------------------------------------------|

www.chordzone.org
 

--4--5--5--4--0--4--4--2----|
----------------------------|
----------------------------|
----------------------------|
----------------------------|
----------------------------|


--------------0-----0-----2L----------------2-------||
--3--------3----------------------------------------||
----------------------------------------------------||
----------------------------------------------------||
----------------------------------------------------||
----------------------------------------------------||


 

Recommended for you:


Click to rate this post!
[Total: 0 Average: 0]

To The Top Get The Guitar Tabs

See Also