Now Reading
BEACH HOUSE – Space Song Guitar Tabs

BEACH HOUSE – Space Song Guitar Tabs

Enable Light Mode
#
A+
A-

This song is from the album Depression Cherry(2015), released on 28 August 2015. The vocals are by Beach House, the music is produced by Victoria Legrand , Alex Scally, and the lyrics are written by Beach House , Chris Coady.
This song is originally in the key of Eb Major. You can change it to any key you want, using the Transpose option. The average tempo is 73 BPM. These chords are simple and easy to play on the guitar, ukulele or piano.

Click here for the chords and lyrics version

 
Original Key: Eb Major
Time Signature: 4/4
Tempo: 73
Suggested Strumming: DU,DU,DU,DU
c h o r d  z o n e . o r g

 
Legend
L - tied note
x - dead note
h - hammer on/pull off
b - bend
s - slide
~ - vibrato
g - ghost note
> - accentuated note
t - trill
M - palm mute
. - staccato
P - popping (bass)
S - slapping (bass)
+ - tapping
W - wide vibrato
< - fade in
w - whammy bar
= - tremolo picking
v - brush up
^ - brush down
V - pick stroke up
n - pick stroke down


E |-------|--3L----------3--4--3--1----|--3L----------3--1-----1----|
B |-------|----------------------------|--------------------4-------|
G |-------|----------------------------|----------------------------|
D |-------|----------------------------|----------------------------|
A |-------|----------------------------|----------------------------|
E |-------|----------------------------|----------------------------|


--3L----------3--4--3--1----|--3L----------3--1----------|
----------------------------|--------------------4--3----|
----------------------------|----------------------------|
----------------------------|----------------------------|
----------------------------|----------------------------|
----------------------------|----------------------------|


--3--------------4--3--1----|--3L----------3--1-----1----|
----------------------------|--------------------4-------|
----------------------------|----------------------------|
----------------------------|----------------------------|
----------------------------|----------------------------|
----------------------------|----------------------------|


--3L----------3--4--3--1----|--3L----------3--1----------|
----------------------------|--------------------4--3----|
----------------------------|----------------------------|
----------------------------|----------------------------|
----------------------------|----------------------------|
----------------------------|----------------------------|


----------------------------------------------------|
--4-----------4-----4-----3--------1L-1-------------|
--------------------------------------------0L------|
----------------------------------------------------|
----------------------------------------------------|
----------------------------------------------------|


--------------------------------------------3L------|--3----|-------|
--------------4-----------3--------1L-1-------------|-------|-------|
--0-------------------------------------------------|-------|-------|
----------------------------------------------------|-------|-------|
----------------------------------------------------|-------|-------|
----------------------------------------------------|-------|-------|


----------------------------------------------------|
--------------4-----4-----3--------1L-1-------------|
--------------------------------------------0L------|
----------------------------------------------------|
----------------------------------------------------|
----------------------------------------------------|

www.chordzone.org
 

--------------------------------------------3L------|--3----|-------|
--------------4-----------3--------1L-1-------------|-------|-------|
--0-------------------------------------------------|-------|-------|
----------------------------------------------------|-------|-------|
----------------------------------------------------|-------|-------|
----------------------------------------------------|-------|-------|


----------------------------------------------------|
--------------4-----4-----3--------1L-1-------------|
--------------------------------------------0L------|
----------------------------------------------------|
----------------------------------------------------|
----------------------------------------------------|


--------------------------------------------3L------|
--------------4-----------3--------1L-1-------------|
--0-------------------------------------------------|
----------------------------------------------------|
----------------------------------------------------|
----------------------------------------------------|


--3-------------------------------------------------|----------------|
--------------4-----4-----3--------1L-1-------------|----------------|
--------------------------------------------0L------|--0--0-----3----|
----------------------------------------------------|--------3-------|
----------------------------------------------------|----------------|
----------------------------------------------------|----------------|


-----------------4--3--1----|--3L----------3--1-----1----|
----------------------------|--------------------4-------|
--0-------------------------|----------------------------|
----------------------------|----------------------------|
----------------------------|----------------------------|
----------------------------|----------------------------|


--3-------------------------------------------------|
--------------4-----------3--------1L-1-------------|
--------------------------------------------0L------|
----------------------------------------------------|
----------------------------------------------------|
----------------------------------------------------|


----------------------------------------------------|
----------------------------------------------------|
--0-----------0--------------------3--------0L-0----|
--------------------------3-------------------------|
----------------------------------------------------|
----------------------------------------------------|


-----------------------3-----------------------3----|
--3-----4-----------4-----3-----4-----------4-------|
--------------0--3--------------------0--3----------|
----------------------------------------------------|
----------------------------------------------------|
----------------------------------------------------|


-----------------------3-----------------------3----|----------|--1-------|
--------------------4-----------------------4-------|--4--3----|-----4----|
--------0-----0--3--------------0-----0--3----------|----------|----------|
--3-----------------------3-------------------------|----------|----------|
----------------------------------------------------|----------|----------|
----------------------------------------------------|----------|----------|


--3--------------------3-----------------------3----|
--------------------4-----3-----4-----------4-------|
--------------0--3--------------------0--3----------|
----------------------------------------------------|
----------------------------------------------------|
----------------------------------------------------|


-----------------------3-----------------------3----|----------|----------|
--------------------4-----------------------4-------|--4--3----|--1-------|
--------0-----0--3--------------0-----0--3----------|----------|-----3----|
--3-----------------------3-------------------------|----------|----------|
----------------------------------------------------|----------|----------|
----------------------------------------------------|----------|----------|


--3L----------3--4--3--1----|--3L----------3--1-----1----|
----------------------------|--------------------4-------|
----------------------------|----------------------------|
----------------------------|----------------------------|
----------------------------|----------------------------|
----------------------------|----------------------------|


--3L----------3--4--3--1----|--3L----------3--1----------|
----------------------------|--------------------4--3----|
----------------------------|----------------------------|
----------------------------|----------------------------|
----------------------------|----------------------------|
----------------------------|----------------------------|


--3--------------4--3--1----|--3L----------3--1-----1----|
----------------------------|--------------------4-------|
----------------------------|----------------------------|
----------------------------|----------------------------|
----------------------------|----------------------------|
----------------------------|----------------------------|


--3L----------3--4--3--1----|--3L----------3--1----------|-------|-------|
----------------------------|--------------------4--3----|--4----|-------|
----------------------------|----------------------------|-------|-------|
----------------------------|----------------------------|-------|-------|
----------------------------|----------------------------|-------|-------|
----------------------------|----------------------------|-------|-------|


--3L----------3--4--3--1----|--3L----------3--1-----1----|
----------------------------|--------------------4-------|
----------------------------|----------------------------|
----------------------------|----------------------------|
----------------------------|----------------------------|
----------------------------|----------------------------|


--3L----------3--4--3--1----|--3L----------3--1----------|
----------------------------|--------------------4--3----|
----------------------------|----------------------------|
----------------------------|----------------------------|
----------------------------|----------------------------|
----------------------------|----------------------------|


--3--------------4--3--1----|--3L----------3--1-----1----|
----------------------------|--------------------4-------|
----------------------------|----------------------------|
----------------------------|----------------------------|
----------------------------|----------------------------|
----------------------------|----------------------------|


--3L----------3--4--3--1----|--3L----------3--1----------|
----------------------------|--------------------4--3----|
----------------------------|----------------------------|
----------------------------|----------------------------|
----------------------------|----------------------------|
----------------------------|----------------------------|


----------------------------------------------------|
--4-----------4-----4-----3--------1L-1-------------|
--------------------------------------------0L------|
----------------------------------------------------|
----------------------------------------------------|
----------------------------------------------------|


--------------------------------------------3L------|--3----|-------|
--------------4-----------3--------1L-1-------------|-------|-------|
--0-------------------------------------------------|-------|-------|
----------------------------------------------------|-------|-------|
----------------------------------------------------|-------|-------|
----------------------------------------------------|-------|-------|


----------------------------------------------------|
--------------4-----4-----3--------1L-1-------------|
--------------------------------------------0L------|
----------------------------------------------------|
----------------------------------------------------|
----------------------------------------------------|


--------------------------------------------3L------|--3----|-------|
--------------4-----------3--------1L-1-------------|-------|-------|
--0-------------------------------------------------|-------|-------|
----------------------------------------------------|-------|-------|
----------------------------------------------------|-------|-------|
----------------------------------------------------|-------|-------|


----------------------------------------------------|
--------------4-----4-----3--------1L-1-------------|
--------------------------------------------0L------|
----------------------------------------------------|
----------------------------------------------------|
----------------------------------------------------|


--------------------------------------------3L------|
--------------4-----------3--------1L-1-------------|
--0-------------------------------------------------|
----------------------------------------------------|
----------------------------------------------------|
----------------------------------------------------|


--3-------------------------------------------------|----------------|
--------------4-----4-----3--------1L-1-------------|----------------|
--------------------------------------------0L------|--0--0-----3----|
----------------------------------------------------|--------3-------|
----------------------------------------------------|----------------|
----------------------------------------------------|----------------|


-----------------4--3--1----|--3L----------3--1-----1----|
----------------------------|--------------------4-------|
--0-------------------------|----------------------------|
----------------------------|----------------------------|
----------------------------|----------------------------|
----------------------------|----------------------------|


--3-------------------------------------------------|
--------------4-----------3--------1L-1-------------|
--------------------------------------------0L------|
----------------------------------------------------|
----------------------------------------------------|
----------------------------------------------------|


----------------------------------------------------|
----------------------------------------------------|
--0-----------0--------------------3--------0L-0----|
--------------------------3-------------------------|
----------------------------------------------------|
----------------------------------------------------|


-----------------------3-----------------------3----|
--3-----4-----------4-----3-----4-----------4-------|
--------------0--3--------------------0--3----------|
----------------------------------------------------|
----------------------------------------------------|
----------------------------------------------------|


-----------------------3-----------------------3----|----------|--1-------|
--------------------4-----------------------4-------|--4--3----|-----4----|
--------0-----0--3--------------0-----0--3----------|----------|----------|
--3-----------------------3-------------------------|----------|----------|
----------------------------------------------------|----------|----------|
----------------------------------------------------|----------|----------|


--3--------------------3-----------------------3----|
--------------------4-----3-----4-----------4-------|
--------------0--3--------------------0--3----------|
----------------------------------------------------|
----------------------------------------------------|
----------------------------------------------------|


-----------------------3-----------------------3----|----------|----------|
--------------------4-----------------------4-------|--4--3----|--1-------|
--------0-----0--3--------------0-----0--3----------|----------|-----3----|
--3-----------------------3-------------------------|----------|----------|
----------------------------------------------------|----------|----------|
----------------------------------------------------|----------|----------|


--3L----------3--4--3--1----|--3L----------3--1-----1----|
----------------------------|--------------------4-------|
----------------------------|----------------------------|
----------------------------|----------------------------|
----------------------------|----------------------------|
----------------------------|----------------------------|


--3L----------3--4--3--1----|--3L----------3--1----------|
----------------------------|--------------------4--3----|
----------------------------|----------------------------|
----------------------------|----------------------------|
----------------------------|----------------------------|
----------------------------|----------------------------|


--3--------------4--3--1----|--3L----------3--1-----1----|
----------------------------|--------------------4-------|
----------------------------|----------------------------|
----------------------------|----------------------------|
----------------------------|----------------------------|
----------------------------|----------------------------|

www.chordzone.org
 

--3L----------3--4--3--1----|--3L----------3--1----------|
----------------------------|--------------------4--3----|
----------------------------|----------------------------|
----------------------------|----------------------------|
----------------------------|----------------------------|
----------------------------|----------------------------|


----------------------------------------------------||
--4L----------------------------------4-------------||
----------------------------------------------------||
----------------------------------------------------||
----------------------------------------------------||
----------------------------------------------------||


Recommended for you:


Click to rate this post!
[Total: 0 Average: 0]

To The Top Get The Guitar Tabs

See Also
AGNEEPATH - Abhi Mujh Mein Kahin