skip to content

SHAKIRA – Don’t Wait Up Guitar Tabs

#
A+
A-

This single was released on 16 July 2021. The vocals are by Shakira, the music is produced by Emily Warren, Ian Kirkpatrick , Shakira, and the lyrics are written by Shakira , Ian Kirkpatrick.
This song is originally in the key of Eb Minor. You can change it to any key you want, using the Transpose option. The average tempo is 115 BPM. These chords are simple and easy to play on the guitar, ukulele or piano.

Click here for the chords and lyrics version

 
Original Key: Eb Minor
Time Signature: 4/4
Tempo: 115
Suggested Strumming: DU,DU,DU,DU
c h o r d  z o n e . o r g
 
  
Legend
L - tied note
x - dead note
h - hammer on/pull off
b - bend
s - slide
~ - vibrato
g - ghost note
> - accentuated note
t - trill
M - palm mute
. - staccato
P - popping (bass)
S - slapping (bass)
+ - tapping
W - wide vibrato
< - fade in
w - whammy bar
= - tremolo picking
v - brush up
^ - brush down
V - pick stroke up
n - pick stroke down


E |-------|-----2--2--2--1--2--2--2----|--1--2--4--2L-2-------------|
B |-------|----------------------------|----------------------------|
G |-------|----------------------------|----------------------------|
D |-------|----------------------------|----------------------------|
A |-------|----------------------------|----------------------------|
E |-------|----------------------------|----------------------------|


-----2--2--2--1--2--2--2----|--1--2--4--2L-2--1L-1-------|
----------------------------|-----------------------2L---|
----------------------------|----------------------------|
----------------------------|----------------------------|
----------------------------|----------------------------|
----------------------------|----------------------------|


-----2--2--2--1--2--2--2----|--1--2--4--2L-2--1-----1L---|
--2-------------------------|----------------------------|
----------------------------|----------------------------|
----------------------------|----------------------------|
----------------------------|----------------------------|
----------------------------|----------------------------|


--1-------------------------|----------------------------|
----------------------------|----------------------------|
--------------------3--3----|-----3L-3-------------------|
----------------------------|----------------------------|
----------------------------|----------------------------|
----------------------------|----------------------------|


-----------------------2L---|--2--------6-----9L-9--7L---|
-----------------2----------|----------------------------|
-----------3----------------|----------------------------|
--4-------------------------|----------------------------|
----------------------------|----------------------------|
----------------------------|----------------------------|


www.chordzone.org
 
--7--6--6--------------4----|-----2--2-------------------|
----------------------------|----------------------------|
----------------------------|----------------------------|
----------------------------|----------------------------|
----------------------------|----------------------------|
----------------------------|----------------------------|


-----------------------2L---|--2--------6-----9L-9--7L---|
-----------------2----------|----------------------------|
-----------3----------------|----------------------------|
--4-------------------------|----------------------------|
----------------------------|----------------------------|
----------------------------|----------------------------|


--7--6--6--------------4----|--2--------------------6----|--6-------------|
----------------------------|-----------4L-4-----4-------|----------------|
----------------------------|----------------------------|----------------|
----------------------------|----------------------------|----------------|
----------------------------|----------------------------|----------------|
----------------------------|----------------------------|----------------|


--------------------6--6----|-----4-----2-----4L-4-------|
-----------------4----------|-----------------------4L---|
----------------------------|----------------------------|
----------------------------|----------------------------|
----------------------------|----------------------------|
----------------------------|----------------------------|


-----2L-2--------------6----|--6-------------|--------------------6--6----|
--4-----------------4-------|----------------|-----------------4----------|
----------------------------|----------------|----------------------------|
----------------------------|----------------|----------------------------|
----------------------------|----------------|----------------------------|
----------------------------|----------------|----------------------------|


-----4-----2-----4L-4-------|-----2L-2-------------------|
-----------------------4L---|--4-------------------------|
----------------------------|----------------------------|
----------------------------|----------------------------|
----------------------------|----------------------------|
----------------------------|----------------------------|


-----9L-9-----7-------------|
-----------------------11L--|
----------------------------|
----------------------------|
----------------------------|
----------------------------|


-----11-------4-----------------------2-------------|
--11------------------------------------------------|
----------------------------------------------------|
----------------------------------------------------|
----------------------------------------------------|
----------------------------------------------------|


-----9--9--9--7--------6L---|
----------------------------|
----------------------------|
----------------------------|
----------------------------|
----------------------------|


--6-----------4-----------------------6-----6-------|-------|
-----7--------------------------4-------------------|-------|
----------------------------------------------------|-------|
----------------------------------------------------|-------|
----------------------------------------------------|-------|
----------------------------------------------------|-------|


--------------------6--6----|-----4-----2-----1-----6----|
-----------------4----------|----------------------------|
----------------------------|----------------------------|
----------------------------|----------------------------|
----------------------------|----------------------------|
----------------------------|----------------------------|


-----4-----2-----1L-1L------|--1----|-------|-----2--2--2--1--2--2--2----|
----------------------------|-------|-------|----------------------------|
----------------------------|-------|-------|----------------------------|
----------------------------|-------|-------|----------------------------|
----------------------------|-------|-------|----------------------------|
----------------------------|-------|-------|----------------------------|


--1--2--4--2L-2-------------|-----2--2--2--1--2--2--2----|
----------------------------|----------------------------|
----------------------------|----------------------------|
----------------------------|----------------------------|
----------------------------|----------------------------|
----------------------------|----------------------------|


--1--2--4--2L-2--1L-1-------|-----2--2--2--1--2--2--2----|
-----------------------2L---|--2-------------------------|
----------------------------|----------------------------|
----------------------------|----------------------------|
----------------------------|----------------------------|
----------------------------|----------------------------|


--1--2--4--2L-2--1-----1L---|--1-------------------------|
----------------------------|----------------------------|
----------------------------|--------------------3--3----|
----------------------------|----------------------------|
----------------------------|----------------------------|
----------------------------|----------------------------|


----------------------------|-----------------------2L---|
----------------------------|-----------------2----------|
-----3L-3-------------------|-----------3----------------|
----------------------------|--4-------------------------|
----------------------------|----------------------------|
----------------------------|----------------------------|


--2--------6-----9L-9--7L---|--7--6--6--------------4----|
----------------------------|----------------------------|
----------------------------|----------------------------|
----------------------------|----------------------------|
----------------------------|----------------------------|
----------------------------|----------------------------|


-----2--2-------------------|-----------------------2L---|
----------------------------|-----------------2----------|
----------------------------|-----------3----------------|
----------------------------|--4-------------------------|
----------------------------|----------------------------|
----------------------------|----------------------------|


--2--------6-----9L-9--7L---|--7--6--6--------------4----|
----------------------------|----------------------------|
----------------------------|----------------------------|
----------------------------|----------------------------|
----------------------------|----------------------------|
----------------------------|----------------------------|


--2--------------------6----|--6-------------|--------------------6--6----|
-----------4L-4-----4-------|----------------|-----------------4----------|
----------------------------|----------------|----------------------------|
----------------------------|----------------|----------------------------|
----------------------------|----------------|----------------------------|
----------------------------|----------------|----------------------------|


-----4-----2-----4L-4-------|-----2L-2--------------6----|--6-------------|
-----------------------4L---|--4-----------------4-------|----------------|
----------------------------|----------------------------|----------------|
----------------------------|----------------------------|----------------|
----------------------------|----------------------------|----------------|
----------------------------|----------------------------|----------------|


--------------------6--6----|-----4-----2-----4L-4-------|
-----------------4----------|-----------------------4L---|
----------------------------|----------------------------|
----------------------------|----------------------------|
----------------------------|----------------------------|
----------------------------|----------------------------|


-----2L-2-------------------|-----9L-9-----7-------------|
--4-------------------------|-----------------------11L--|
----------------------------|----------------------------|
----------------------------|----------------------------|
----------------------------|----------------------------|
----------------------------|----------------------------|


-----11-------4-----------------------2-------------|
--11------------------------------------------------|
----------------------------------------------------|
----------------------------------------------------|
----------------------------------------------------|
----------------------------------------------------|


-----9--9--9--7--------6L---|
----------------------------|
----------------------------|
----------------------------|
----------------------------|
----------------------------|


--6-----------4-----------------------6-----6-------|-------|
-----7--------------------------4-------------------|-------|
----------------------------------------------------|-------|
----------------------------------------------------|-------|
----------------------------------------------------|-------|
----------------------------------------------------|-------|


www.chordzone.org
 
--------------------6--6----|-----4-----2-----1-----6----|
-----------------4----------|----------------------------|
----------------------------|----------------------------|
----------------------------|----------------------------|
----------------------------|----------------------------|
----------------------------|----------------------------|


-----4-----2-----1L-1L------|--1----||
----------------------------|-------||
----------------------------|-------||
----------------------------|-------||
----------------------------|-------||
----------------------------|-------||


Recommended for you:


POPULAR SONGS

RELATED SONGS