Now Reading
BILLIE EILISH – Idontwannabeyouanymore Guitar Tabs

BILLIE EILISH – Idontwannabeyouanymore Guitar Tabs

Enable Light Mode
#
A+
A-

This song is from the album dont smile at me(2017), released on 20 July 2017. The vocals are by Billie Eilish, the music is produced by Billie Eilish , FINNEAS, and the lyrics are written by FINNEAS.
This song is originally in the key of E Minor. You can change it to any key you want, using the Transpose option. The average tempo is 87 BPM. These chords are simple and easy to play on the guitar, ukulele or piano.
Vocals: Billie Eilish ,
Producer: FINNEAS,
Writer: Billie Eilish , FINNEAS,

Click here for the chords and lyrics version

 
Original Key: E Minor
Time Signature: 6/8
Tempo: 87
Suggested Strumming: D,D,D,D,D,D
c h o r d  z o n e . o r g

 
Legend
L - tied note
x - dead note
h - hammer on/pull off
b - bend
s - slide
~ - vibrato
g - ghost note
> - accentuated note
t - trill
M - palm mute
. - staccato
P - popping (bass)
S - slapping (bass)
+ - tapping
W - wide vibrato
< - fade in
w - whammy bar
= - tremolo picking
v - brush up
^ - brush down
V - pick stroke up
n - pick stroke down


E |-------|--0-------------------|----------------------|--0-------------------|
B |-------|--------------0--3----|--0-----------0--3----|-----------3--0--3----|
G |-------|----------------------|----------------------|----------------------|
D |-------|----------------------|----------------------|----------------------|
A |-------|----------------------|----------------------|----------------------|
E |-------|----------------------|----------------------|----------------------|


----------------------|--0-------------------|----------------------|
--0-----------0--3----|--------------0--3----|--0-----------0--3----|
----------------------|----------------------|----------------------|
----------------------|----------------------|----------------------|
----------------------|----------------------|----------------------|
----------------------|----------------------|----------------------|


-------------|-------|--0-------------------|----------------------|
-----0-------|-------|--------------0--3----|--0-----------0--3----|
-------------|-------|----------------------|----------------------|
-------------|-------|----------------------|----------------------|
-------------|-------|----------------------|----------------------|
-------------|-------|----------------------|----------------------|


--0-------------------|----------------------|--0-------------------|
-----------3--0--3----|--0-----------0--3----|--------------0--3----|
----------------------|----------------------|----------------------|
----------------------|----------------------|----------------------|
----------------------|----------------------|----------------------|
----------------------|----------------------|----------------------|


----------------------|-------------|-----------------0----|
--0-----------0--3----|-----0-------|----------------------|
----------------------|-------------|----------------------|
----------------------|-------------|----------------------|
----------------------|-------------|----------------------|
----------------------|-------------|----------------------|

www.chordzone.org
 

--7-----5-----0--3----|--7--5----------------|--7--5--5-------------|
----------------------|--------------5--8----|--------------5--8----|
----------------------|----------------------|----------------------|
----------------------|----------------------|----------------------|
----------------------|----------------------|----------------------|
----------------------|----------------------|----------------------|


--7--5----------------|--7-----5-------------|--7--5-----------3----|--2----|
--------------5--8----|--------------5--8----|----------------------|-------|
----------------------|----------------------|----------------------|-------|
----------------------|----------------------|----------------------|-------|
----------------------|----------------------|----------------------|-------|
----------------------|----------------------|----------------------|-------|


----------------------|--7-----5-------------|--7--5----------------|
-----------------5----|--------------5--8----|--------------5--8----|
----------------------|----------------------|----------------------|
----------------------|----------------------|----------------------|
----------------------|----------------------|----------------------|
----------------------|----------------------|----------------------|


--7--5--5-------------|--7--5----------------|--7-----5-------------|
--------------5--8----|--------------5--8----|--------------5--8----|
----------------------|----------------------|----------------------|
----------------------|----------------------|----------------------|
----------------------|----------------------|----------------------|
----------------------|----------------------|----------------------|


--7--5--5--5-----3----|--2----------|-------|--0--2----|--3--5----|
----------------------|-------------|-------|----------|----------|
----------------------|-------------|-------|----------|----------|
----------------------|-------------|-------|----------|----------|
----------------------|-------------|-------|----------|----------|
----------------------|-------------|-------|----------|----------|


--7--2-------|--------------3--2----|--2--0L------|--0----|-------|
-------------|----------------------|-------------|-------|-------|
-------------|----------------------|-------------|-------|-------|
-------------|----------------------|-------------|-------|-------|
-------------|----------------------|-------------|-------|-------|
-------------|----------------------|-------------|-------|-------|


--0-------------------|----------------------|--0-------------------|
--------------0--3----|--0-----------0--3----|-----------3--0--3----|
----------------------|----------------------|----------------------|
----------------------|----------------------|----------------------|
----------------------|----------------------|----------------------|
----------------------|----------------------|----------------------|


----------------------|--0-------------------|----------------------|
--0-----------0--3----|--------------0--3----|--0-----------0--3----|
----------------------|----------------------|----------------------|
----------------------|----------------------|----------------------|
----------------------|----------------------|----------------------|
----------------------|----------------------|----------------------|


-------------|-------|--0-------------------|----------------------|
-----0-------|-------|--------------0--3----|--0-----------0--3----|
-------------|-------|----------------------|----------------------|
-------------|-------|----------------------|----------------------|
-------------|-------|----------------------|----------------------|
-------------|-------|----------------------|----------------------|


--0-------------------|----------------------|--0-------------------|
-----------3--0--3----|--0-----------0--3----|--------------0--3----|
----------------------|----------------------|----------------------|
----------------------|----------------------|----------------------|
----------------------|----------------------|----------------------|
----------------------|----------------------|----------------------|


----------------------|----------------------------------------|
--0-----------0--3----|--------------0L----------------0-------|
----------------------|----------------------------------------|
----------------------|----------------------------------------|
----------------------|----------------------------------------|
----------------------|----------------------------------------|


-----------------0----|--7-----5-------------|--7--5----------------|
----------------------|--------------5--8----|--------------5--8----|
----------------------|----------------------|----------------------|
----------------------|----------------------|----------------------|
----------------------|----------------------|----------------------|
----------------------|----------------------|----------------------|


--7--5--5-------------|--7--5----------------|--7-----5-------------|
--------------5--8----|--------------5--8----|--------------5--8----|
----------------------|----------------------|----------------------|
----------------------|----------------------|----------------------|
----------------------|----------------------|----------------------|
----------------------|----------------------|----------------------|


--7--5-----------3----|--2----|----------------------|--7-----5-------------|
----------------------|-------|-----------------5----|--------------5--8----|
----------------------|-------|----------------------|----------------------|
----------------------|-------|----------------------|----------------------|
----------------------|-------|----------------------|----------------------|
----------------------|-------|----------------------|----------------------|


--7--5----------------|--7--5--5-------------|--7--5----------------|
--------------5--8----|--------------5--8----|--------------5--8----|
----------------------|----------------------|----------------------|
----------------------|----------------------|----------------------|
----------------------|----------------------|----------------------|
----------------------|----------------------|----------------------|


www.chordzone.org
 
--7-----5-------------|--7--5--5--5-----3----|--2----------|-------|--0--2----|
--------------5--8----|----------------------|-------------|-------|----------|
----------------------|----------------------|-------------|-------|----------|
----------------------|----------------------|-------------|-------|----------|
----------------------|----------------------|-------------|-------|----------|
----------------------|----------------------|-------------|-------|----------|


--3--5----|--7--2-------|--------------3--2----|--2--0L------|--0----||
----------|-------------|----------------------|-------------|-------||
----------|-------------|----------------------|-------------|-------||
----------|-------------|----------------------|-------------|-------||
----------|-------------|----------------------|-------------|-------||
----------|-------------|----------------------|-------------|-------||


Recommended for you:


Click to rate this post!
[Total: 0 Average: 0]

To The Top Get The Guitar Tabs

See Also