Now Reading
BAREILLY KI BARFI – Nazm Nazm Guitar Tabs

BAREILLY KI BARFI – Nazm Nazm Guitar Tabs

Enable Light Mode
#
A+
A-


This song is from the movie Bareilly Ki Barfi (2017), released on 31 July 2017 starring Kriti Sanon, Ayushmann Khurrana .
Vocals: Arko,
Producer(s): Arko,
Writer(s): Arko,

Click here for the chords and lyrics version

Requested By K



Scale: G Major
Time Signature: 4/4
Tempo: 80
Suggested Strumming: DU,DU,DU,DU
c h o r d  z o n e . o r g

Legend
L - tied note
x - dead note
h - hammer on/pull off
b - bend
s - slide
~ - vibrato
g - ghost note
> - accentuated note
t - trill
M - palm mute
. - staccato
P - popping (bass)
S - slapping (bass)
+ - tapping
W - wide vibrato
< - fade in
w - whammy bar
= - tremolo picking
v - brush up
^ - brush down
V - pick stroke up
n - pick stroke down


E |-----------------------3----|
B |----------------------------|
G |----------------------------|
D |----------------------------|
A |----------------------------|
E |----------------------------|


--3--3--3--10-10-10-------7-----7L----7-------------|
--------------------10------------------------------|
----------------------------------------------------|
----------------------------------------------------|
----------------------------------------------------|
----------------------------------------------------|


-----------7--5--------3--2--0--0-------------------|
--8-----8-----------------------------------3-------|
----------------------------------------------------|
----------------------------------------------------|
----------------------------------------------------|
----------------------------------------------------|


-----------5-----5--5-----7-----5-----------10------|
--5-----5-------------------------------------------|
----------------------------------------------------|
----------------------------------------------------|
----------------------------------------------------|
----------------------------------------------------|


--10-10-5--5--3--------3----|
----------------------------|
----------------------------|
----------------------------|
----------------------------|
----------------------------|


www.chordzone.org
 
--3-----3--10----10-------7-----7L----7-------------|
--------------------10------------------------------|
----------------------------------------------------|
----------------------------------------------------|
----------------------------------------------------|
----------------------------------------------------|


-----------7--5--------3--2--0--0-------------------|
--8-----8-----------------------------------3-------|
----------------------------------------------------|
----------------------------------------------------|
----------------------------------------------------|
----------------------------------------------------|


-----------5-----5--5-----7-----5-----------10------|
--5-----5-------------------------------------------|
----------------------------------------------------|
----------------------------------------------------|
----------------------------------------------------|
----------------------------------------------------|


--10-10-5--5--3-------------|
----------------------------|
----------------------------|
----------------------------|
----------------------------|
----------------------------|


--2-----3-------------------------------------------|
--------------------------------------------8--7----|
----------------------------------------------------|
----------------------------------------------------|
----------------------------------------------------|
----------------------------------------------------|


----------------------------------------------------|
--5-----3-----------------------------------8--7----|
----------------------------------------------------|
----------------------------------------------------|
----------------------------------------------------|
----------------------------------------------------|


--------------------------------------------3--2----|--3----|
--5-----3L----3-------------------------------------|-------|
----------------------------------------------------|-------|
----------------------------------------------------|-------|
----------------------------------------------------|-------|
----------------------------------------------------|-------|


-----------------------3----|
----------------------------|
----------------------------|
----------------------------|
----------------------------|
----------------------------|


--3--3--3--10-10-10-------7-----7L----7-------------|
--------------------10------------------------------|
----------------------------------------------------|
----------------------------------------------------|
----------------------------------------------------|
----------------------------------------------------|


-----------7--5--------3--2--0--0-------------------|
--8-----8-----------------------------------3-------|
----------------------------------------------------|
----------------------------------------------------|
----------------------------------------------------|
----------------------------------------------------|


-----------5-----5--5-----7-----5-----------10------|
--5-----5-------------------------------------------|
----------------------------------------------------|
----------------------------------------------------|
----------------------------------------------------|
----------------------------------------------------|


--10-10-5--5--3--------3----|
----------------------------|
----------------------------|
----------------------------|
----------------------------|
----------------------------|


--3-----3--10----10-------7-----7L----7-------------|
--------------------10------------------------------|
----------------------------------------------------|
----------------------------------------------------|
----------------------------------------------------|
----------------------------------------------------|

www.chordzone.org
 

-----------7--5--------3--2--0--0-------------------|
--8-----8-----------------------------------3-------|
----------------------------------------------------|
----------------------------------------------------|
----------------------------------------------------|
----------------------------------------------------|


-----------5-----5--5-----7-----5-----------10------|
--5-----5-------------------------------------------|
----------------------------------------------------|
----------------------------------------------------|
----------------------------------------------------|
----------------------------------------------------|


--10-10-5--5--3-------------|
----------------------------|
----------------------------|
----------------------------|
----------------------------|
----------------------------|


--2-----3-------------------------------------------|
--------------------------------------------8--7----|
----------------------------------------------------|
----------------------------------------------------|
----------------------------------------------------|
----------------------------------------------------|


----------------------------------------------------|
--5-----3-----------------------------------8--7----|
----------------------------------------------------|
----------------------------------------------------|
----------------------------------------------------|
----------------------------------------------------|


--------------------------------------------3--2----|
--5-----3L----3-------------------------------------|
----------------------------------------------------|
----------------------------------------------------|
----------------------------------------------------|
----------------------------------------------------|


--3L----------------------------------3-------------||
----------------------------------------------------||
----------------------------------------------------||
----------------------------------------------------||
----------------------------------------------------||
----------------------------------------------------||


  

Found any corrections in the chords or lyrics? Please leave a comment below.

Click to rate this post!
[Total: 0 Average: 0]

To The Top Get The Guitar Tabs

See Also