Now Reading
ED SHEERAN – Shivers Guitar Tabs

ED SHEERAN – Shivers Guitar Tabs

Enable Light Mode
#
A+
A-

This song is from the album =(2021), released on 09 September 2021. The vocals are by Ed Sheeran, the music is produced by Ed Sheeran, Kal Lavelle, Johnny McDaid , Steve Mac, and the lyrics are written by Ed Sheeran, Fred again.. , Steve Mac.
This song is originally in the key of B Minor. You can change it to any key you want, using the Transpose option. The average tempo is 140 BPM. These chords are simple and easy to play on the guitar, ukulele or piano.

Click here for the chords and lyrics version

 
Original Key: B Minor
Time Signature: 4/4
Tempo: 140
Suggested Strumming: DU,DU,DU,DU
c h o r d  z o n e . o r g

 
Legend
L - tied note
x - dead note
h - hammer on/pull off
b - bend
s - slide
~ - vibrato
g - ghost note
> - accentuated note
t - trill
M - palm mute
. - staccato
P - popping (bass)
S - slapping (bass)
+ - tapping
W - wide vibrato
< - fade in
w - whammy bar
= - tremolo picking
v - brush up
^ - brush down
V - pick stroke up
n - pick stroke down


E |-------|-----------------------0----|-----------2----------------|
B |-------|--0--------3----------------|----------------------------|
G |-------|----------------------------|----------------------------|
D |-------|----------------------------|----------------------------|
A |-------|----------------------------|----------------------------|
E |-------|----------------------------|----------------------------|


-----------------------0----|-----------2----------------|
--0--------3----------------|----------------------------|
----------------------------|----------------------------|
----------------------------|----------------------------|
----------------------------|----------------------------|
----------------------------|----------------------------|


-----------------------0----|-----------2----------------|
-----------3----------------|----------------------------|
--2-------------------------|----------------------------|
----------------------------|----------------------------|
----------------------------|----------------------------|
----------------------------|----------------------------|


----------------------------|-----------0----------------|----------|
-----------2-----------3L---|--3--0--0-----0--0--0-------|--0-------|
--2-------------------------|-----------------------2----|----------|
----------------------------|----------------------------|----------|
----------------------------|----------------------------|----------|
----------------------------|----------------------------|----------|


----------------------------|----------------|----------------------------|
-----0--0--0--0-------------|-----3--3-------|-----3--3--3L-3-------------|
-----------------2--2--0----|--0-------------|--------------------2-------|
----------------------------|----------------|----------------------------|
----------------------------|----------------|----------------------------|
----------------------------|----------------|----------------------------|


----------------|----------------------------|----------|
-----3--3-------|-----2--3--2--3--2--3--2L---|--2-------|
--2-------------|----------------------------|----------|
----------------|----------------------------|----------|
----------------|----------------------------|----------|
----------------|----------------------------|----------|


----------------------------|----------|----------------------------|
-----0-----0-----0--0-------|--0-------|-----0--0--0--0-------------|
-----------------------2----|----------|-----------------2--2--0----|
----------------------------|----------|----------------------------|
----------------------------|----------|----------------------------|
----------------------------|----------|----------------------------|


----------------|----------------------------|----------------|
-----3--3-------|-----3--3--3L-3-------------|-----3--3-------|
--0-------------|-----------------2--2--2----|--2-------------|
----------------|----------------------------|----------------|
----------------|----------------------------|----------------|
----------------|----------------------------|----------------|


----------------------------|----------------------------|
-----2--3--2--3--2--3--2L---|--2-------------------------|
----------------------------|-----------------------2L---|
----------------------------|----------------------------|
----------------------------|----------------------------|
----------------------------|----------------------------|


----------------------------|
-----------------0--0-------|
--2--2--2--2--2-------------|
----------------------------|
----------------------------|
----------------------------|


----------------------------------------------------|
--------------------3--3--3-----3-----3-------------|
----------------------------------------------------|
----------------------------------------------------|
----------------------------------------------------|
----------------------------------------------------|


----------------------------------------------------|
--------------------3--3--3-----3-----3-------------|
----------------------------------------------------|
----------------------------------------------------|
----------------------------------------------------|
----------------------------------------------------|


----------------------------------------------------|
--------------------3--3--3-----3-----------3L------|
----------------------------------------------------|
----------------------------------------------------|
----------------------------------------------------|
----------------------------------------------------|


-----------------------------------------0L---------|
--3-----------------3--3--3-----3-----3-------------|
----------------------------------------------------|
----------------------------------------------------|
----------------------------------------------------|
----------------------------------------------------|


--0--------0--0--0L-0--0L---|--0--0--0--0--0--0--0--0L---|
----------------------------|----------------------------|
----------------------------|----------------------------|
----------------------------|----------------------------|
----------------------------|----------------------------|
----------------------------|----------------------------|


--0-------------------------|----------------------------|
-----3--3-----2--------2L---|--2--2--2--2--2--0--0-------|
----------------------------|----------------------------|
----------------------------|----------------------------|
----------------------------|----------------------------|
----------------------------|----------------------------|


--2--------------0--0--0----|--0--0--0--------------0----|
-----------3--3-------------|--------------3-----3-------|
----------------------------|----------------------------|
----------------------------|----------------------------|
----------------------------|----------------------------|
----------------------------|----------------------------|


--2-----0--------0--0--0----|--0--2L-2--------------0----|
-----------3--3-------------|-----------------3--3-------|
----------------------------|----------------------------|
----------------------------|----------------------------|
----------------------------|----------------------------|
----------------------------|----------------------------|


--2-----0--------0--0--0----|--0--0--0--------------0----|
-----------3--3-------------|--------------3-----3-------|
----------------------------|----------------------------|
----------------------------|----------------------------|
----------------------------|----------------------------|
----------------------------|----------------------------|


--2--5--5--5--7--5--5--5----|--5--2--0--------------0----|
----------------------------|--------------3--3--3-------|
----------------------------|----------------------------|
----------------------------|----------------------------|
----------------------------|----------------------------|
----------------------------|----------------------------|


--2--------------0--0--0----|--0--0--0--------------0----|
-----------3--3-------------|--------------3-----3-------|
----------------------------|----------------------------|
----------------------------|----------------------------|
----------------------------|----------------------------|
----------------------------|----------------------------|


--2-----0--------0--0--0----|--0--2L-2--------------0----|
-----------3--3-------------|-----------------3--3-------|
----------------------------|----------------------------|
----------------------------|----------------------------|
----------------------------|----------------------------|
----------------------------|----------------------------|


--2-----0--------0--0--0----|--0--0--0--------------0----|
-----------3--3-------------|--------------3-----3-------|
----------------------------|----------------------------|
----------------------------|----------------------------|
----------------------------|----------------------------|
----------------------------|----------------------------|


--2--5--5--5--7--5--5--5----|--5--2--0-------------------|----------|
----------------------------|--------------3L------------|--3-------|
----------------------------|----------------------------|----------|
----------------------------|----------------------------|----------|
----------------------------|----------------------------|----------|
----------------------------|----------------------------|----------|


-----------------------0----|-----------2----------------|
--0--------3----------------|----------------------------|
----------------------------|----------------------------|
----------------------------|----------------------------|
----------------------------|----------------------------|
----------------------------|----------------------------|


-----------------------0----|-----------2----------------|
--0--------3----------------|----------------------------|
----------------------------|----------------------------|
----------------------------|----------------------------|
----------------------------|----------------------------|
----------------------------|----------------------------|


-----------------------0----|-----------2----------------|
-----------3----------------|----------------------------|
--2-------------------------|----------------------------|
----------------------------|----------------------------|
----------------------------|----------------------------|
----------------------------|----------------------------|


----------------------------|-----------0----------------|----------|
-----------2-----------3L---|--3--0--0-----0--0--0-------|--0-------|
--2-------------------------|-----------------------2----|----------|
----------------------------|----------------------------|----------|
----------------------------|----------------------------|----------|
----------------------------|----------------------------|----------|


----------------------------|----------------|----------------------------|
-----0--0--0--0-------------|-----3--3-------|-----3--3--3L-3-------------|
-----------------2--2--0----|--0-------------|--------------------2-------|
----------------------------|----------------|----------------------------|
----------------------------|----------------|----------------------------|
----------------------------|----------------|----------------------------|


----------------|----------------------------|----------|
-----3--3-------|-----2--3--2--3--2--3--2L---|--2-------|
--2-------------|----------------------------|----------|
----------------|----------------------------|----------|
----------------|----------------------------|----------|
----------------|----------------------------|----------|

www.chordzone.org
 

----------------------------|----------|----------------------------|
-----0-----0-----0--0-------|--0-------|-----0--0--0--0-------------|
-----------------------2----|----------|-----------------2--2--0----|
----------------------------|----------|----------------------------|
----------------------------|----------|----------------------------|
----------------------------|----------|----------------------------|


----------------|----------------------------|----------------|
-----3--3-------|-----3--3--3L-3-------------|-----3--3-------|
--0-------------|-----------------2--2--2----|--2-------------|
----------------|----------------------------|----------------|
----------------|----------------------------|----------------|
----------------|----------------------------|----------------|


----------------------------|----------------------------|
-----2--3--2--3--2--3--2L---|--2-------------------------|
----------------------------|-----------------------2L---|
----------------------------|----------------------------|
----------------------------|----------------------------|
----------------------------|----------------------------|


----------------------------|
-----------------0--0-------|
--2--2--2--2--2-------------|
----------------------------|
----------------------------|
----------------------------|


----------------------------------------------------|
--------------------3--3--3-----3-----3-------------|
----------------------------------------------------|
----------------------------------------------------|
----------------------------------------------------|
----------------------------------------------------|


----------------------------------------------------|
--------------------3--3--3-----3-----3-------------|
----------------------------------------------------|
----------------------------------------------------|
----------------------------------------------------|
----------------------------------------------------|


----------------------------------------------------|
--------------------3--3--3-----3-----------3L------|
----------------------------------------------------|
----------------------------------------------------|
----------------------------------------------------|
----------------------------------------------------|


-----------------------------------------0L---------|
--3-----------------3--3--3-----3-----3-------------|
----------------------------------------------------|
----------------------------------------------------|
----------------------------------------------------|
----------------------------------------------------|


--0--------0--0--0L-0--0L---|--0--0--0--0--0--0--0--0L---|
----------------------------|----------------------------|
----------------------------|----------------------------|
----------------------------|----------------------------|
----------------------------|----------------------------|
----------------------------|----------------------------|


--0-------------------------|
-----3--3-----2--------2L---|
----------------------------|
----------------------------|
----------------------------|
----------------------------|


----------------------------------------------------|
--2-----2-----2-----2-----2-----0-----0-------------|
----------------------------------------------------|
----------------------------------------------------|
----------------------------------------------------|
----------------------------------------------------|


--2--------------0--0--0----|--0--0--0--------------0----|
-----------3--3-------------|--------------3-----3-------|
----------------------------|----------------------------|
----------------------------|----------------------------|
----------------------------|----------------------------|
----------------------------|----------------------------|


--2-----0--------0--0--0----|--0--2L-2--------------0----|
-----------3--3-------------|-----------------3--3-------|
----------------------------|----------------------------|
----------------------------|----------------------------|
----------------------------|----------------------------|
----------------------------|----------------------------|


--2-----0--------0--0--0----|--0--0--0--------------0----|
-----------3--3-------------|--------------3-----3-------|
----------------------------|----------------------------|
----------------------------|----------------------------|
----------------------------|----------------------------|
----------------------------|----------------------------|


--2--5--5--5--7--5--5--5----|--5--2--0--------------0----|
----------------------------|--------------3--3--3-------|
----------------------------|----------------------------|
----------------------------|----------------------------|
----------------------------|----------------------------|
----------------------------|----------------------------|

www.chordzone.org
 

--2--------------0--0--0----|--0--0--0--------------0----|
-----------3--3-------------|--------------3-----3-------|
----------------------------|----------------------------|
----------------------------|----------------------------|
----------------------------|----------------------------|
----------------------------|----------------------------|


--2-----0--------0--0--0----|--0--2L-2--------------0----|
-----------3--3-------------|-----------------3--3-------|
----------------------------|----------------------------|
----------------------------|----------------------------|
----------------------------|----------------------------|
----------------------------|----------------------------|


--2-----0--------0--0--0----|--0--0--0--------------0----|
-----------3--3-------------|--------------3-----3-------|
----------------------------|----------------------------|
----------------------------|----------------------------|
----------------------------|----------------------------|
----------------------------|----------------------------|


--2--5--5--5--7--5--5--5----|--5--2--0-------------------|
----------------------------|--------------3L------------|
----------------------------|----------------------------|
----------------------------|----------------------------|
----------------------------|----------------------------|
----------------------------|----------------------------|


----------------------------------------------------||
--3L----------------3-------------------------------||
----------------------------------------------------||
----------------------------------------------------||
----------------------------------------------------||
----------------------------------------------------||


Recommended for you:


Click to rate this post!
[Total: 0 Average: 0]

To The Top Get The Guitar Tabs

See Also