Now Reading
JOHN MAYER – Wild Blue Guitar Tabs

JOHN MAYER – Wild Blue Guitar Tabs

Enable Light Mode
#
A+
A-

This song is from the album Sob Rock(2021), released on 16 July 2021. The vocals are by John Mayer, the music is produced by John Mayer, and the lyrics are written by Don Was.
This song is originally in the key of A Minor. You can change it to any key you want, using the Transpose option. The average tempo is 120 BPM. These chords are simple and easy to play on the guitar, ukulele or piano.
Vocals: John Mayer ,
Producer: Don Was,
Writer: John Mayer ,

Click here for the chords and lyrics version

 
Original Key: A Minor
Time Signature: 4/4
Tempo: 120
Suggested Strumming: DU,DU,DU,DU
c h o r d  z o n e . o r g

 
Legend
L - tied note
x - dead note
h - hammer on/pull off
b - bend
s - slide
~ - vibrato
g - ghost note
> - accentuated note
t - trill
M - palm mute
. - staccato
P - popping (bass)
S - slapping (bass)
+ - tapping
W - wide vibrato
< - fade in
w - whammy bar
= - tremolo picking
v - brush up
^ - brush down
V - pick stroke up
n - pick stroke down


E |-------|--------------3--5--3--0----|--0-----0-------------------|
B |-------|----------------------------|-----3--------------3L------|
G |-------|----------------------------|----------------------------|
D |-------|----------------------------|----------------------------|
A |-------|----------------------------|----------------------------|
E |-------|----------------------------|----------------------------|


-----------------0----------|----------------------------|
--3-----------3-----3--1----|--3--3----------------------|
----------------------------|--------2-------------------|
----------------------------|----------------------------|
----------------------------|----------------------------|
----------------------------|----------------------------|

www.chordzone.org
 

--------------3--5--3--0----|--0-----0-------------------|
----------------------------|-----3--------------3L------|
----------------------------|----------------------------|
----------------------------|----------------------------|
----------------------------|----------------------------|
----------------------------|----------------------------|


-----------------0----------|----------------------------|--0--3L---------|
--3-----------3-----3--1----|--3--3-----------1--3-------|----------------|
----------------------------|--------2-------------------|----------------|
----------------------------|----------------------------|----------------|
----------------------------|----------------------------|----------------|
----------------------------|----------------------------|----------------|


--3-----------3--1--0-------|--------0-------------------|----------------|
-----------------------3----|--3--------1--3--1L-1L------|--1-------------|
----------------------------|----------------------------|----------------|
----------------------------|----------------------------|----------------|
----------------------------|----------------------------|----------------|
----------------------------|----------------------------|----------------|


--0--3----------|-----3--1--0L-0-------------|----------------------------|
----------------|--------------------3--3L---|--3--1L-1L------------------|
----------------|----------------------------|----------------------------|
----------------|----------------------------|----------------------------|
----------------|----------------------------|----------------------------|
----------------|----------------------------|----------------------------|


-----0-----0----------------|--0--3L---------|--3--------3--3--1--0-------|
--1-----3-----3--1--1--3----|----------------|-----------------------3----|
----------------------------|----------------|----------------------------|
----------------------------|----------------|----------------------------|
----------------------------|----------------|----------------------------|
----------------------------|----------------|----------------------------|


-----------0L-0-------------|-------|-------|--------------3--5--3--0----|
--3-----------------1L------|--1----|-------|----------------------------|
----------------------------|-------|-------|----------------------------|
----------------------------|-------|-------|----------------------------|
----------------------------|-------|-------|----------------------------|
----------------------------|-------|-------|----------------------------|


--0-----0-------------------|-----------------0----------|
-----3--------------3L------|--3-----------3-----3--1----|
----------------------------|----------------------------|
----------------------------|----------------------------|
----------------------------|----------------------------|
----------------------------|----------------------------|


----------------------------|--------------3--5--3--0----|
--3--3----------------------|----------------------------|
--------2-------------------|----------------------------|
----------------------------|----------------------------|
----------------------------|----------------------------|
----------------------------|----------------------------|

www.chordzone.org
 

--0-----0-------------------|-----------------0----------|
-----3--------------3L------|--3-----------3-----3--1----|
----------------------------|----------------------------|
----------------------------|----------------------------|
----------------------------|----------------------------|
----------------------------|----------------------------|


----------------------------|--0--3L---------|--3-----------3--1--0-------|
--3--3-----------1--3-------|----------------|-----------------------3----|
--------2-------------------|----------------|----------------------------|
----------------------------|----------------|----------------------------|
----------------------------|----------------|----------------------------|
----------------------------|----------------|----------------------------|


--------0-------------------|----------------|--0--3----------|
--3--------1--3--1L-1L------|--1-------------|----------------|
----------------------------|----------------|----------------|
----------------------------|----------------|----------------|
----------------------------|----------------|----------------|
----------------------------|----------------|----------------|


-----3--1--0L-0-------------|----------------------------|
--------------------3--3L---|--3--1L-1L------------------|
----------------------------|----------------------------|
----------------------------|----------------------------|
----------------------------|----------------------------|
----------------------------|----------------------------|


-----0-----0----------------|--0--3L---------|--3--------3--3--1--0-------|
--1-----3-----3--1--1--3----|----------------|-----------------------3----|
----------------------------|----------------|----------------------------|
----------------------------|----------------|----------------------------|
----------------------------|----------------|----------------------------|
----------------------------|----------------|----------------------------|


-----------0L-0-------------|-------|-------||
--3-----------------1L------|--1----|-------||
----------------------------|-------|-------||
----------------------------|-------|-------||
----------------------------|-------|-------||
----------------------------|-------|-------||


Recommended for you:


Click to rate this post!
[Total: 0 Average: 0]

To The Top Get The Guitar Tabs

See Also