skip to content

JUBIN NAUTIYAL – Khushi Jab Bhi Teri Guitar Tabs

#
A+
A-

This single was released on 24 August 2021. The vocals are by Jubin Nautiyal, the music is produced by A M Turaz, and the lyrics are written by Rochak Kohli.
This song is originally in the key of G# Minor. You can change it to any key you want, using the Transpose option. The average tempo is 95 BPM. These chords are simple and easy to play on the guitar, ukulele or piano.
Vocals: Jubin Nautiyal ,
Producer: Rochak Kohli,
Writer: A M Turaz,

Click here for the chords and lyrics version

 
Original Key: G# Minor
Time Signature: 4/4
Tempo: 95
Suggested Strumming: DU,DU,DU,DU
c h o r d  z o n e . o r g

Legend
L - tied note
x - dead note
h - hammer on/pull off
b - bend
s - slide
~ - vibrato
g - ghost note
> - accentuated note
t - trill
M - palm mute
. - staccato
P - popping (bass)
S - slapping (bass)
+ - tapping
W - wide vibrato
< - fade in
w - whammy bar
= - tremolo picking
v - brush up
^ - brush down
V - pick stroke up
n - pick stroke down


E |-----------------------------------------4-----6----|
B |----------------------------------------------------|
G |----------------------------------------------------|
D |----------------------------------------------------|
A |----------------------------------------------------|
E |----------------------------------------------------|


--7--------7--------6-----4--------------4-----6----|
----------------------------------------------------|
----------------------------------------------------|
----------------------------------------------------|
----------------------------------------------------|
----------------------------------------------------|


--7--------7--------6-----4--------------4-----6----|
----------------------------------------------------|
----------------------------------------------------|
----------------------------------------------------|
----------------------------------------------------|
----------------------------------------------------|


--9--------9--------6-----6--4-----2--------2-------|
----------------------------------------------------|
----------------------------------------------------|
----------------------------------------------------|
----------------------------------------------------|
----------------------------------------------------|


--6--------6--------4-----4-----------4-----6-------|
----------------------------------------------------|
----------------------------------------------------|
----------------------------------------------------|
----------------------------------------------------|
----------------------------------------------------|


--7--------7--------6-----4--------------4-----6----|
----------------------------------------------------|
----------------------------------------------------|
----------------------------------------------------|
----------------------------------------------------|
----------------------------------------------------|


--7--------7--------6-----4--------------4-----6----|
----------------------------------------------------|
----------------------------------------------------|
----------------------------------------------------|
----------------------------------------------------|
----------------------------------------------------|


--9--------9--------6-----6--4-----2--------2-------|
----------------------------------------------------|
----------------------------------------------------|
----------------------------------------------------|
----------------------------------------------------|
----------------------------------------------------|


--6--------6--------4-----4-------------------------|
--------------------------------------------12------|
----------------------------------------------------|
----------------------------------------------------|
----------------------------------------------------|
----------------------------------------------------|


--12-------12-------11----11-------9--------7-------|
----------------------------------------------------|
----------------------------------------------------|
----------------------------------------------------|
----------------------------------------------------|
----------------------------------------------------|


--11-------12-------11----11-------11-------11------|
----------------------------------------------------|
----------------------------------------------------|
----------------------------------------------------|
----------------------------------------------------|
----------------------------------------------------|


--12-------9--------7-----6--------6--------6-------|
----------------------------------------------------|
----------------------------------------------------|
----------------------------------------------------|
----------------------------------------------------|
----------------------------------------------------|


--9--------7--------6-----4--------4----------------|
--------------------------------------------7-------|
----------------------------------------------------|
----------------------------------------------------|
----------------------------------------------------|
----------------------------------------------------|


--7--------6--------4-----4--------4L-4L------------|
----------------------------------------------------|
----------------------------------------------------|
----------------------------------------------------|
----------------------------------------------------|
----------------------------------------------------|


--4-------------------------|
-----------------------7----|
----------------------------|
----------------------------|
----------------------------|
----------------------------|


--7--------6--------4-----4--------4----------------|
--------------------------------------------4-------|
----------------------------------------------------|
----------------------------------------------------|
----------------------------------------------------|
----------------------------------------------------|


--7--------6--------------6--------6----------------|
--------------------7-----------------------7-------|
----------------------------------------------------|
----------------------------------------------------|
----------------------------------------------------|
----------------------------------------------------|


--7--------6--------4-----4--------4----------------|
--------------------------------------------4-------|
----------------------------------------------------|
----------------------------------------------------|
----------------------------------------------------|
----------------------------------------------------|


--7--------6--------------6--------6--------9-------|
--------------------7-------------------------------|
----------------------------------------------------|
----------------------------------------------------|
----------------------------------------------------|
----------------------------------------------------|


--9--6-----9--------6-----------------6--9--11------|
--------------------------7-------------------------|
----------------------------------------------------|
----------------------------------------------------|
----------------------------------------------------|
----------------------------------------------------|


--11-------7--------6-----4--------4----------------|
--------------------------------------------7-------|
----------------------------------------------------|
----------------------------------------------------|
----------------------------------------------------|
----------------------------------------------------|


--7--------6--------4-----4--------4----------------|
--------------------------------------------4-------|
----------------------------------------------------|
----------------------------------------------------|
----------------------------------------------------|
----------------------------------------------------|

www.chordzone.org
 

--7--------6--------------6--------6--------9-------|
--------------------7-------------------------------|
----------------------------------------------------|
----------------------------------------------------|
----------------------------------------------------|
----------------------------------------------------|


--9--6-----9--------6-----------------6--9--11------|
--------------------------7-------------------------|
----------------------------------------------------|
----------------------------------------------------|
----------------------------------------------------|
----------------------------------------------------|


--11-------7--------6-----4--------4L-4L------------|--4-------|
----------------------------------------------------|----------|
----------------------------------------------------|----------|
----------------------------------------------------|----------|
----------------------------------------------------|----------|
----------------------------------------------------|----------|


-----------------------------------------4-----6----|
----------------------------------------------------|
----------------------------------------------------|
----------------------------------------------------|
----------------------------------------------------|
----------------------------------------------------|


--7--------7--------6-----4--------------4-----6----|
----------------------------------------------------|
----------------------------------------------------|
----------------------------------------------------|
----------------------------------------------------|
----------------------------------------------------|


--7--------7--------6-----4--------------4-----6----|
----------------------------------------------------|
----------------------------------------------------|
----------------------------------------------------|
----------------------------------------------------|
----------------------------------------------------|


--9--------9--------6-----6--4-----2--------2-------|
----------------------------------------------------|
----------------------------------------------------|
----------------------------------------------------|
----------------------------------------------------|
----------------------------------------------------|


--6--------6--------4-----4-----------4-----6-------|
----------------------------------------------------|
----------------------------------------------------|
----------------------------------------------------|
----------------------------------------------------|
----------------------------------------------------|


--7--------7--------6-----4--------------4-----6----|
----------------------------------------------------|
----------------------------------------------------|
----------------------------------------------------|
----------------------------------------------------|
----------------------------------------------------|


--7--------7--------6-----4--------------4-----6----|
----------------------------------------------------|
----------------------------------------------------|
----------------------------------------------------|
----------------------------------------------------|
----------------------------------------------------|


--9--------9--------6-----6--4-----2--------2-------|
----------------------------------------------------|
----------------------------------------------------|
----------------------------------------------------|
----------------------------------------------------|
----------------------------------------------------|


--6--------6--------4-----4-------------------------|
--------------------------------------------12------|
----------------------------------------------------|
----------------------------------------------------|
----------------------------------------------------|
----------------------------------------------------|


--12-------12-------11----11-------9--------7-------|
----------------------------------------------------|
----------------------------------------------------|
----------------------------------------------------|
----------------------------------------------------|
----------------------------------------------------|


--11-------12-------11----11-------11-------11------|
----------------------------------------------------|
----------------------------------------------------|
----------------------------------------------------|
----------------------------------------------------|
----------------------------------------------------|


--12-------9--------7-----6--------6--------6-------|
----------------------------------------------------|
----------------------------------------------------|
----------------------------------------------------|
----------------------------------------------------|
----------------------------------------------------|


--9--------7--------6-----4--------4----------------|
--------------------------------------------7-------|
----------------------------------------------------|
----------------------------------------------------|
----------------------------------------------------|
----------------------------------------------------|


--7--------6--------4-----4--------4L-4L------------|
----------------------------------------------------|
----------------------------------------------------|
----------------------------------------------------|
----------------------------------------------------|
----------------------------------------------------|


--4-------------------------|
-----------------------7----|
----------------------------|
----------------------------|
----------------------------|
----------------------------|


--7--------6--------4-----4--------4----------------|
--------------------------------------------4-------|
----------------------------------------------------|
----------------------------------------------------|
----------------------------------------------------|
----------------------------------------------------|


--7--------6--------------6--------6----------------|
--------------------7-----------------------7-------|
----------------------------------------------------|
----------------------------------------------------|
----------------------------------------------------|
----------------------------------------------------|


--7--------6--------4-----4--------4----------------|
--------------------------------------------4-------|
----------------------------------------------------|
----------------------------------------------------|
----------------------------------------------------|
----------------------------------------------------|


--7--------6--------------6--------6--------9-------|
--------------------7-------------------------------|
----------------------------------------------------|
----------------------------------------------------|
----------------------------------------------------|
----------------------------------------------------|


--9--6-----9--------6-----------------6--9--11------|
--------------------------7-------------------------|
----------------------------------------------------|
----------------------------------------------------|
----------------------------------------------------|
----------------------------------------------------|


--11-------7--------6-----4--------4----------------|
--------------------------------------------7-------|
----------------------------------------------------|
----------------------------------------------------|
----------------------------------------------------|
----------------------------------------------------|

www.chordzone.org
 

--7--------6--------4-----4--------4----------------|
--------------------------------------------4-------|
----------------------------------------------------|
----------------------------------------------------|
----------------------------------------------------|
----------------------------------------------------|


--7--------6--------------6--------6--------9-------|
--------------------7-------------------------------|
----------------------------------------------------|
----------------------------------------------------|
----------------------------------------------------|
----------------------------------------------------|


--9--6-----9--------6-----------------6--9--11------|
--------------------------7-------------------------|
----------------------------------------------------|
----------------------------------------------------|
----------------------------------------------------|
----------------------------------------------------|


--11-------7--------6-----4--------4L-4L------------|--4-------||
----------------------------------------------------|----------||
----------------------------------------------------|----------||
----------------------------------------------------|----------||
----------------------------------------------------|----------||
----------------------------------------------------|----------||




 

Recommended for you:


POPULAR SONGS

RELATED SONGS