Now Reading
SUB URBAN – Cradles Guitar Tabs

SUB URBAN – Cradles Guitar Tabs

Enable Light Mode
#
A+
A-

This single was released on 04 January 2019. The vocals are by Sub Urban, the music is produced by Sub Urban, and the lyrics are written by Sub Urban .
This song is originally in the key of Bb Minor. You can change it to any key you want, using the Transpose option. The average tempo is 80 BPM. These chords are simple and easy to play on the guitar, ukulele or piano.
Vocals: Sub Urban ,
Producer: Sub Urban ,
Writer: Sub Urban ,

Click here for the chords and lyrics version

 
Original Key: Bb Minor
Time Signature: 4/4
Tempo: 80
Suggested Strumming: DU,DU,DU,DU
c h o r d  z o n e . o r g

     
Legend
L - tied note
x - dead note
h - hammer on/pull off
b - bend
s - slide
~ - vibrato
g - ghost note
> - accentuated note
t - trill
M - palm mute
. - staccato
P - popping (bass)
S - slapping (bass)
+ - tapping
W - wide vibrato
< - fade in
w - whammy bar
= - tremolo picking
v - brush up
^ - brush down
V - pick stroke up
n - pick stroke down


E |-------|--6--9--13-9-----5--8--5----|-----6--9--6-----1--4-------|
B |-------|--------------6-------------|--7-----------2-------------|
G |-------|----------------------------|----------------------------|
D |-------|----------------------------|----------------------------|
A |-------|----------------------------|----------------------------|
E |-------|----------------------------|----------------------------|


--6--9--13-9-----5--8--5----|-----6--9--6-----1--4-------|
--------------6-------------|--7-----------2-------------|
----------------------------|----------------------------|
----------------------------|----------------------------|
----------------------------|----------------------------|
----------------------------|----------------------------|


--------4-----1-----1--2----|
----------------------------|
----------------------------|
----------------------------|
----------------------------|
----------------------------|


--4-----------1-----2-----4--------2--1-------------|
----------------------------------------------------|
----------------------------------------------------|
----------------------------------------------------|
----------------------------------------------------|
----------------------------------------------------|


--4-----1-----1--2--4-------|
----------------------------|
----------------------------|
----------------------------|
----------------------------|
----------------------------|


--1-----2-----4--------2--1-------------------------|
----------------------------------------------------|
----------------------------------------------------|
----------------------------------------------------|
----------------------------------------------------|
----------------------------------------------------|


--9-----8--6--5--6--6--4----|
----------------------------|
----------------------------|
----------------------------|
----------------------------|
----------------------------|


--2-----2-----4--------2--1-------------------------|
----------------------------------------------------|
----------------------------------------------------|
----------------------------------------------------|
----------------------------------------------------|
----------------------------------------------------|


--9-----8--6--5--6--6--4----|
----------------------------|
----------------------------|
----------------------------|
----------------------------|
----------------------------|

www.chordzone.org
 

--2-----2-----4--------2--1-------------------------|
----------------------------------------------------|
----------------------------------------------------|
----------------------------------------------------|
----------------------------------------------------|
----------------------------------------------------|


----------------------------|
--4--4--4--2--1-------------|
----------------------------|
----------------------------|
----------------------------|
----------------------------|


--------------------------------------4-------------|
--4-----6-----4-----6-----4-----6--------------6----|
----------------------------------------------------|
----------------------------------------------------|
----------------------------------------------------|
----------------------------------------------------|


--------------4-----------------------6-------------|
--4--------4-----------6--4--------------------6----|
----------------------------------------------------|
----------------------------------------------------|
----------------------------------------------------|
----------------------------------------------------|


--------4-----------6--9----|--13-9-----5--8--5-----6----|
--4--4-----6--4-------------|--------6-----------7-------|
-----------------6----------|----------------------------|
----------------------------|----------------------------|
----------------------------|----------------------------|
----------------------------|----------------------------|


--9--6-----1--4-----6--9----|--13-9-----5--8--5-----6----|
--------2-------------------|--------6-----------7-------|
----------------------------|----------------------------|
----------------------------|----------------------------|
----------------------------|----------------------------|
----------------------------|----------------------------|


--9--6-----1--4L------------|--4-------------|--6--9--13-9-----5--8--5----|
--------2-------------------|----------------|--------------6-------------|
----------------------------|----------------|----------------------------|
----------------------------|----------------|----------------------------|
----------------------------|----------------|----------------------------|
----------------------------|----------------|----------------------------|


-----6--9--6-----1--4-------|--6--9--13-9-----5--8--5----|
--7-----------2-------------|--------------6-------------|
----------------------------|----------------------------|
----------------------------|----------------------------|
----------------------------|----------------------------|
----------------------------|----------------------------|


-----6--9--6-----1--4-------|--------4-----1-----1--2----|
--7-----------2-------------|----------------------------|
----------------------------|----------------------------|
----------------------------|----------------------------|
----------------------------|----------------------------|
----------------------------|----------------------------|


--4-----------1-----2-----4--------2--1-------------|
----------------------------------------------------|
----------------------------------------------------|
----------------------------------------------------|
----------------------------------------------------|
----------------------------------------------------|


--4-----1-----1--2--4-------|
----------------------------|
----------------------------|
----------------------------|
----------------------------|
----------------------------|


--1-----2-----4--------2--1-------------------------|
----------------------------------------------------|
----------------------------------------------------|
----------------------------------------------------|
----------------------------------------------------|
----------------------------------------------------|


--9-----8--6--5--6--6--4----|
----------------------------|
----------------------------|
----------------------------|
----------------------------|
----------------------------|


--2-----2-----4--------2--1-------------------------|
----------------------------------------------------|
----------------------------------------------------|
----------------------------------------------------|
----------------------------------------------------|
----------------------------------------------------|


--9-----8--6--5--6--6--4----|
----------------------------|
----------------------------|
----------------------------|
----------------------------|
----------------------------|


--2-----2-----4--------2--1-------------------------|
----------------------------------------------------|
----------------------------------------------------|
----------------------------------------------------|
----------------------------------------------------|
----------------------------------------------------|


www.chordzone.org
 
----------------------------------------------------|
--4-----4-----4-----2-----1-------------------------|
----------------------------------------------------|
----------------------------------------------------|
----------------------------------------------------|
----------------------------------------------------|


--------------------------------------4-------------|
--4-----6-----4-----6-----4-----6--------------6----|
----------------------------------------------------|
----------------------------------------------------|
----------------------------------------------------|
----------------------------------------------------|


--------------4-----------------------6-------------|
--4--------4-----------6--4--------------------6----|
----------------------------------------------------|
----------------------------------------------------|
----------------------------------------------------|
----------------------------------------------------|


--------4-----------6--9----|--13-9-----5--8--5-----6----|
--4--4-----6--4-------------|--------6-----------7-------|
-----------------6----------|----------------------------|
----------------------------|----------------------------|
----------------------------|----------------------------|
----------------------------|----------------------------|


--9--6-----1--4-----6--9----|--13-9-----5--8--5-----6----|
--------2-------------------|--------6-----------7-------|
----------------------------|----------------------------|
----------------------------|----------------------------|
----------------------------|----------------------------|
----------------------------|----------------------------|


--9--6-----1--4L------------|
--------2-------------------|
----------------------------|
----------------------------|
----------------------------|
----------------------------|


--4L----------------------4-------------------------||
----------------------------------------------------||
----------------------------------------------------||
----------------------------------------------------||
----------------------------------------------------||
----------------------------------------------------||


Recommended for you:


Click to rate this post!
[Total: 0 Average: 0]