Now Reading
CKAY feat JOEBOY, KUAMI EUGENE – Love Nwantiti Remix Guitar Tabs

CKAY feat JOEBOY, KUAMI EUGENE – Love Nwantiti Remix Guitar Tabs

Enable Light Mode
#
A+
A-

This single was released on 14 February 2020. The vocals are by CKay, the music is produced by CKay, and the lyrics are written by CKay.
This song is originally in the key of F Minor. You can change it to any key you want, using the Transpose option. The average tempo is 94 BPM. These chords are simple and easy to play on the guitar, ukulele or piano.
Vocals: CKay,
Producer: CKay,
Writer: CKay,

Click here for the chords and lyrics version

 
Original Key: F Minor
Time Signature: 4/4
Tempo: 94
Suggested Strumming: DU,DU,DU,DU
c h o r d  z o n e . o r g

 
Legend
L - tied note
x - dead note
h - hammer on/pull off
b - bend
s - slide
~ - vibrato
g - ghost note
> - accentuated note
t - trill
M - palm mute
. - staccato
P - popping (bass)
S - slapping (bass)
+ - tapping
W - wide vibrato
< - fade in
w - whammy bar
= - tremolo picking
v - brush up
^ - brush down
V - pick stroke up
n - pick stroke down


E |-------|-------|-----------1-----------------------0----------------|
B |-------|-------|-----------------4--2L-2-----------------2--1L-1----|
G |-------|-------|----------------------------------------------------|
D |-------|-------|----------------------------------------------------|
A |-------|-------|--4L-------4L----4L-4-----3L-------3L----3L-3-------|
E |-------|-------|----------------------------------------------------|


-----------1----------------------------------------|
-----------------2--1-----------1--2L-2--1--1-------|
--------------------------1L----1L-1----------------|
--3L-------3L----3L-3-------------------------------|
----------------------------------------------------|
----------------------------------------------------|


-----------1-----------------------0----------------|
-----------------4--2L-2-----------------2--1L-1----|
----------------------------------------------------|
----------------------------------------------------|
--4L-------4L----4L-4-----3L-------3L----3L-3-------|
----------------------------------------------------|


-----------1----------------------------------------|
-----------------2--1-----------1--2L-2--1--1-------|
--------------------------1L----1L-1----------------|
--3L-------3L----3L-3-------------------------------|
----------------------------------------------------|
----------------------------------------------------|


-----------8--8--9--8--6--3-----6L-6L-6L-------6L---|
----------------------------------------------------|
----------------------------------------------------|
----------------------------------------------------|
----------------------------------------------------|
----------------------------------------------------|


--6-----------13-11-13----9--9--8--9--9--8--8--6----|
-----------13----------13---------------------------|
----------------------------------------------------|
----------------------------------------------------|
----------------------------------------------------|
----------------------------------------------------|


-----------8--8--9-----8--------6L-6L-6-------------|
--9-----------------------8-----------------9L-9----|
----------------------------------------------------|
----------------------------------------------------|
----------------------------------------------------|
----------------------------------------------------|


--------------13-11-13----9-----9--8--9L-9--8--6----|
--13-------------------13---------------------------|
----------------------------------------------------|
----------------------------------------------------|
----------------------------------------------------|
----------------------------------------------------|


-----------8--------4-----3L----3L-3--6L-------6L---|
--9-------------------------------------------------|
----------------------------------------------------|
----------------------------------------------------|
----------------------------------------------------|
----------------------------------------------------|

www.chordzone.org
 

--6--8-----8--8-----6--4--3L-3--3-----8L-8----------|
--------------------------------------------9-------|
----------------------------------------------------|
----------------------------------------------------|
----------------------------------------------------|
----------------------------------------------------|


-----------8--------4-----3L----3L-3--6L-------6----|
--9-------------------------------------------------|
----------------------------------------------------|
----------------------------------------------------|
----------------------------------------------------|
----------------------------------------------------|


-----8-----8--------------6L-6--8-----8L-8--13------|
--9-----------------9-------------------------------|
----------------------------------------------------|
----------------------------------------------------|
----------------------------------------------------|
----------------------------------------------------|


--13----------11-11-13-13-13-15-13----------13------|
--------------------------------------13L13---------|
----------------------------------------------------|
----------------------------------------------------|
----------------------------------------------------|
----------------------------------------------------|


--13----------13-13-------9-----8-----6L-6--8-------|
--------------------13------------------------------|
----------------------------------------------------|
----------------------------------------------------|
----------------------------------------------------|
----------------------------------------------------|


--------------13-13-------9-----8-----8L-8----------|
--9-----------------13------------------------------|
----------------------------------------------------|
----------------------------------------------------|
----------------------------------------------------|
----------------------------------------------------|


--11-11-11-8--9-----8-----6L-6--6-----8--6--4--3----|
----------------------------------------------------|
----------------------------------------------------|
----------------------------------------------------|
----------------------------------------------------|
----------------------------------------------------|


--1-----------4--1--4--1--3-----3-----3L-3----------|
----------------------------------------------------|
----------------------------------------------------|
----------------------------------------------------|
----------------------------------------------------|
----------------------------------------------------|


--4-----8-----6-----6L-6--6-----------8--6--4--3----|
-----------9--------------------9-------------------|
----------------------------------------------------|
----------------------------------------------------|
----------------------------------------------------|
----------------------------------------------------|


--1-----------4--1--4--1--3-----3-----3L-3----------|
----------------------------------------------------|
----------------------------------------------------|
----------------------------------------------------|
----------------------------------------------------|
----------------------------------------------------|


--4-----8-----6-----6L-6--6-----------8--6--4--3----|
-----------9--------------------9-------------------|
----------------------------------------------------|
----------------------------------------------------|
----------------------------------------------------|
----------------------------------------------------|


--1-----------4--1--4--1--3-----3-----3L-3----------|
----------------------------------------------------|
----------------------------------------------------|
----------------------------------------------------|
----------------------------------------------------|
----------------------------------------------------|


--4-----8-----6-----6L-6--6-----------8--6--4--3----|
-----------9--------------------9-------------------|
----------------------------------------------------|
----------------------------------------------------|
----------------------------------------------------|
----------------------------------------------------|


--1-----------4--1--4--1--3-----3-----3L-3----------|
----------------------------------------------------|
----------------------------------------------------|
----------------------------------------------------|
----------------------------------------------------|
----------------------------------------------------|


--4-----8-----6-----6L-6--6-----------8--6--4--3----|--1----|-------|
-----------9--------------------9-------------------|-------|-------|
----------------------------------------------------|-------|-------|
----------------------------------------------------|-------|-------|
----------------------------------------------------|-------|-------|
----------------------------------------------------|-------|-------|


-----------1-----------------------0----------------|
-----------------4--2L-2-----------------2--1L-1----|
----------------------------------------------------|
----------------------------------------------------|
--4L-------4L----4L-4-----3L-------3L----3L-3-------|
----------------------------------------------------|


-----------1----------------------------------------|
-----------------2--1-----------1--2L-2--1--1-------|
--------------------------1L----1L-1----------------|
--3L-------3L----3L-3-------------------------------|
----------------------------------------------------|
----------------------------------------------------|


-----------1-----------------------0----------------|
-----------------4--2L-2-----------------2--1L-1----|
----------------------------------------------------|
----------------------------------------------------|
--4L-------4L----4L-4-----3L-------3L----3L-3-------|
----------------------------------------------------|


-----------1----------------------------------------|
-----------------2--1-----------1--2L-2--1--1-------|
--------------------------1L----1L-1----------------|
--3L-------3L----3L-3-------------------------------|
----------------------------------------------------|
----------------------------------------------------|


-----------8--8--9--8--6--3-----6L-6L-6L-------6L---|
----------------------------------------------------|
----------------------------------------------------|
----------------------------------------------------|
----------------------------------------------------|
----------------------------------------------------|


--6-----------13-11-13----9--9--8--9--9--8--8--6----|
-----------13----------13---------------------------|
----------------------------------------------------|
----------------------------------------------------|
----------------------------------------------------|
----------------------------------------------------|


-----------8--8--9-----8--------6L-6L-6-------------|
--9--------------------11-8-----------------9L-9----|
----------------------------------------------------|
----------------------------------------------------|
----------------------------------------------------|
----------------------------------------------------|


--------------13-11-13----9-----9--8--9L-9--8--6----|
--13-------------------13---------------------------|
----------------------------------------------------|
----------------------------------------------------|
----------------------------------------------------|
----------------------------------------------------|


-----------8--------4-----3L----3L-3--6L-------6L---|
--9-------------------------------------------------|
----------------------------------------------------|
----------------------------------------------------|
----------------------------------------------------|
----------------------------------------------------|


--6--8-----8--8-----6--4--3L-3--3-----8L-8----------|
--------------------------------------------9-------|
----------------------------------------------------|
----------------------------------------------------|
----------------------------------------------------|
----------------------------------------------------|


-----------8--------4-----3L----3L-3--6L-------6----|
--9-------------------------------------------------|
----------------------------------------------------|
----------------------------------------------------|
----------------------------------------------------|
----------------------------------------------------|


-----8-----8--------------6L-6--8-----8L-8--13------|
--9-----------------9-------------------------------|
----------------------------------------------------|
----------------------------------------------------|
----------------------------------------------------|
----------------------------------------------------|


--13----------11-11-13-13-13-15-13----------13------|
--------------------------------------13L13---------|
----------------------------------------------------|
----------------------------------------------------|
----------------------------------------------------|
----------------------------------------------------|


--13----------13-13-------9-----8-----6L-6--8-------|
--------------------13------------------------------|
----------------------------------------------------|
----------------------------------------------------|
----------------------------------------------------|
----------------------------------------------------|


--------------13-13-------9-----8-----8L-8----------|
--9-----------------13------------------------------|
----------------------------------------------------|
----------------------------------------------------|
----------------------------------------------------|
----------------------------------------------------|


--11-11-11-8--9-----8-----6L-6--6-----8--6--4--3----|
----------------------------------------------------|
----------------------------------------------------|
----------------------------------------------------|
----------------------------------------------------|
----------------------------------------------------|


--1-----------4--1--4--1--3-----3-----3L-3----------|
----------------------------------------------------|
----------------------------------------------------|
----------------------------------------------------|
----------------------------------------------------|
----------------------------------------------------|


--4-----8-----6-----6L-6--6-----------8--6--4--3----|
-----------9--------------------9-------------------|
----------------------------------------------------|
----------------------------------------------------|
----------------------------------------------------|
----------------------------------------------------|


--1-----------4--1--4--1--3-----3-----3L-3----------|
----------------------------------------------------|
----------------------------------------------------|
----------------------------------------------------|
----------------------------------------------------|
----------------------------------------------------|


--4-----8-----6-----6L-6--6-----------8--6--4--3----|
-----------9--------------------9-------------------|
----------------------------------------------------|
----------------------------------------------------|
----------------------------------------------------|
----------------------------------------------------|


www.chordzone.org
 
--1-----------4--1--4--1--3-----3-----3L-3----------|
----------------------------------------------------|
----------------------------------------------------|
----------------------------------------------------|
----------------------------------------------------|
----------------------------------------------------|


--4-----8-----6-----6L-6--6-----------8--6--4--3----|
-----------9--------------------9-------------------|
----------------------------------------------------|
----------------------------------------------------|
----------------------------------------------------|
----------------------------------------------------|


--1-----------4--1--4--1--3-----3-----3L-3----------|
----------------------------------------------------|
----------------------------------------------------|
----------------------------------------------------|
----------------------------------------------------|
----------------------------------------------------|


--4-----8-----6-----6L-6--6-----------8--6--4--3----|
-----------9--------------------9-------------------|
----------------------------------------------------|
----------------------------------------------------|
----------------------------------------------------|
----------------------------------------------------|


--1L----------------------------------1-------------||
----------------------------------------------------||
----------------------------------------------------||
----------------------------------------------------||
----------------------------------------------------||
----------------------------------------------------||


Recommended for you:


Click to rate this post!
[Total: 0 Average: 0]

To The Top Get The Guitar Tabs

See Also