Now Reading
COLDPLAY feat BTS – My Universe Guitar Tabs

COLDPLAY feat BTS – My Universe Guitar Tabs

Enable Light Mode
#
A+
A-

This single was released on 24 September 2021. The vocals are by Coldplay , BTS, the music is produced by Coldplay , BTS, and the lyrics are written by Coldplay , BTS.
This song is originally in the key of E Major. You can change it to any key you want, using the Transpose option. The average tempo is 105 BPM. These chords are simple and easy to play on the guitar, ukulele or piano.
Vocals: Coldplay , BTS,
Producer: Coldplay , BTS,
Writer: Coldplay , BTS,

Click here for the chords and lyrics version

 
Original Key: E Major
Time Signature: 4/4
Tempo: 105
Suggested Strumming: DU,DU,DU,DU
c h o r d  z o n e . o r g

 
Legend
L - tied note
x - dead note
h - hammer on/pull off
b - bend
s - slide
~ - vibrato
g - ghost note
> - accentuated note
t - trill
M - palm mute
. - staccato
P - popping (bass)
S - slapping (bass)
+ - tapping
W - wide vibrato
< - fade in
w - whammy bar
= - tremolo picking
v - brush up
^ - brush down
V - pick stroke up
n - pick stroke down


E |-------|--12-------12-12-------12---|--12-14L14-14L14-16L16------|
B |-------|----------------------------|----------------------------|
G |-------|----------------------------|----------------------------|
D |-------|----------------------------|----------------------------|
A |-------|----------------------------|----------------------------|
E |-------|----------------------------|----------------------------|


--12-------12-12-------12---|--12-14L14-11L11-9----------|
----------------------------|--------------------12------|
----------------------------|----------------------------|
----------------------------|----------------------------|
----------------------------|----------------------------|
----------------------------|----------------------------|


--12-------12-12-------12---|--12-14L14-14L14-16L16------|
----------------------------|----------------------------|
----------------------------|----------------------------|
----------------------------|----------------------------|
----------------------------|----------------------------|
----------------------------|----------------------------|


--12----------------------------------------4--5----|
----------------------------------------------------|
----------------------------------------------------|
----------------------------------------------------|
----------------------------------------------------|
----------------------------------------------------|


--7--2--2--2--2--2--2--4L---|--4--------------------0----|
----------------------------|----------------------------|
----------------------------|----------------------------|
----------------------------|----------------------------|
----------------------------|----------------------------|
----------------------------|----------------------------|


--0--0--0--4L-4-------------|
-----------------0--0L------|
----------------------------|
----------------------------|
----------------------------|
----------------------------|


--------------------------------------------4--5----|
--0-------------------------------------------------|
----------------------------------------------------|
----------------------------------------------------|
----------------------------------------------------|
----------------------------------------------------|


--7--2--2--2--2--2--2--4L---|--4--------0--0--------0----|
----------------------------|----------------------------|
----------------------------|----------------------------|
----------------------------|----------------------------|
----------------------------|----------------------------|
----------------------------|----------------------------|


--0--0--0--4L-4-------------|
-----------------0--0-------|
----------------------------|
----------------------------|
----------------------------|
----------------------------|


--7-----7--7--------4-----7-------------------------|
----------------------------------------------------|
----------------------------------------------------|
----------------------------------------------------|
----------------------------------------------------|
----------------------------------------------------|


--7-----7--7--------7-----4-----------0-----0-------|
--------------------------------7-------------------|
----------------------------------------------------|
----------------------------------------------------|
----------------------------------------------------|
----------------------------------------------------|

www.chordzone.org
 

--7-----7--7--------4-----7-------------------------|
----------------------------------------------------|
----------------------------------------------------|
----------------------------------------------------|
----------------------------------------------------|
----------------------------------------------------|


--7-----7--7--------7-----7-----7-----9-----12------|
----------------------------------------------------|
----------------------------------------------------|
----------------------------------------------------|
----------------------------------------------------|
----------------------------------------------------|


--12-------12-12-------12---|--12-14L14-14L14-16L16------|
----------------------------|----------------------------|
----------------------------|----------------------------|
----------------------------|----------------------------|
----------------------------|----------------------------|
----------------------------|----------------------------|


--12-------12-12-------12---|--12-14L14-11L11-9----------|
----------------------------|--------------------12------|
----------------------------|----------------------------|
----------------------------|----------------------------|
----------------------------|----------------------------|
----------------------------|----------------------------|


--12-------12-12-------12---|--12-14L14-14L14-16L16-19---|
----------------------------|----------------------------|
----------------------------|----------------------------|
----------------------------|----------------------------|
----------------------------|----------------------------|
----------------------------|----------------------------|


--19-16-14-12-14-16---------|-------|-------|--12-------12-12-------12---|
--------------------12L-----|--12---|-------|----------------------------|
----------------------------|-------|-------|----------------------------|
----------------------------|-------|-------|----------------------------|
----------------------------|-------|-------|----------------------------|
----------------------------|-------|-------|----------------------------|


--12-14L14-14L14-16L16------|--12-------12-12-------12---|
----------------------------|----------------------------|
----------------------------|----------------------------|
----------------------------|----------------------------|
----------------------------|----------------------------|
----------------------------|----------------------------|


--12-14L14-11L11-9----------|--12-------12-12-------12---|
--------------------12------|----------------------------|
----------------------------|----------------------------|
----------------------------|----------------------------|
----------------------------|----------------------------|
----------------------------|----------------------------|


--12-14L14-14L14-16L16------|
----------------------------|
----------------------------|
----------------------------|
----------------------------|
----------------------------|


--12----------------------------------------4--5----|
----------------------------------------------------|
----------------------------------------------------|
----------------------------------------------------|
----------------------------------------------------|
----------------------------------------------------|


--7--2--2--2--2--2--2--4L---|--4--------------------0----|
----------------------------|----------------------------|
----------------------------|----------------------------|
----------------------------|----------------------------|
----------------------------|----------------------------|
----------------------------|----------------------------|


--0--0--0--4L-4-------------|
-----------------0--0L------|
----------------------------|
----------------------------|
----------------------------|
----------------------------|


--------------------------------------------4--5----|
--0-------------------------------------------------|
----------------------------------------------------|
----------------------------------------------------|
----------------------------------------------------|
----------------------------------------------------|


--7--2--2--2--2--2--2--4L---|--4--------0--0--------0----|
----------------------------|----------------------------|
----------------------------|----------------------------|
----------------------------|----------------------------|
----------------------------|----------------------------|
----------------------------|----------------------------|


--0--0--0--4L-4-------------|
-----------------0--0-------|
----------------------------|
----------------------------|
----------------------------|
----------------------------|


--7-----7--7--------4-----7-------------------------|
----------------------------------------------------|
----------------------------------------------------|
----------------------------------------------------|
----------------------------------------------------|
----------------------------------------------------|


--7-----7--7--------7-----4-----------0-----0-------|
--------------------------------7-------------------|
----------------------------------------------------|
----------------------------------------------------|
----------------------------------------------------|
----------------------------------------------------|


www.chordzone.org
 
--7-----7--7--------4-----7-------------------------|
----------------------------------------------------|
----------------------------------------------------|
----------------------------------------------------|
----------------------------------------------------|
----------------------------------------------------|


--7-----7--7--------7-----7-----7-----9-----12------|
----------------------------------------------------|
----------------------------------------------------|
----------------------------------------------------|
----------------------------------------------------|
----------------------------------------------------|


--12-------12-12-------12---|--12-14L14-14L14-16L16------|
----------------------------|----------------------------|
----------------------------|----------------------------|
----------------------------|----------------------------|
----------------------------|----------------------------|
----------------------------|----------------------------|


--12-------12-12-------12---|--12-14L14-11L11-9----------|
----------------------------|--------------------12------|
----------------------------|----------------------------|
----------------------------|----------------------------|
----------------------------|----------------------------|
----------------------------|----------------------------|


--12-------12-12-------12---|--12-14L14-14L14-16L16-19---|
----------------------------|----------------------------|
----------------------------|----------------------------|
----------------------------|----------------------------|
----------------------------|----------------------------|
----------------------------|----------------------------|


--19-16-14-12-14-16---------|-------||
--------------------12L-----|--12---||
----------------------------|-------||
----------------------------|-------||
----------------------------|-------||
----------------------------|-------||


Recommended for you:


Click to rate this post!
[Total: 0 Average: 0]

To The Top Get The Guitar Tabs

See Also