skip to content

HRIDAYAM – Darshana Guitar Tabs

#
A+
A-

This song is from the movie Hridayam(2021), released on 25 October 2021 starring Pranav Mohanlal as Arun Neelakandan, Kalyani Priyadarshan as Sharmila, Darshana Rajendran as Darshana & Aju Varghese. The vocals are by Hesham Abdul Wahab, Darshana Rajendran, the music is produced by Arun Alat, and the lyrics are written by Hesham Abdul Wahab
This song is originally in the key of A Minor. You can change it to any key you want, using the Transpose option. The average tempo is 96 BPM. These chords are simple and easy to play on the guitar, ukulele or piano.

Click here for the chords and lyrics version

Requested By Sujith

 
Original Key: A Minor
Time Signature: 4/4
Tempo: 96
Suggested Strumming: DU,DU,DU,DU
c h o r d  z o n e . o r g
 
 
Legend
L - tied note
x - dead note
h - hammer on/pull off
b - bend
s - slide
~ - vibrato
g - ghost note
> - accentuated note
t - trill
M - palm mute
. - staccato
P - popping (bass)
S - slapping (bass)
+ - tapping
W - wide vibrato
< - fade in
w - whammy bar
= - tremolo picking
v - brush up
^ - brush down
V - pick stroke up
n - pick stroke down


E |--------------------------------------------12-10---|-------|
B |--------------------------------------10------------|--10L--|
G |----------------------------------------------------|-------|
D |----------------------------------------------------|-------|
A |----------------------------------------------------|-------|
E |----------------------------------------------------|-------|


--------------------------------------------12-10---|
--10----------------------------------10------------|
----------------------------------------------------|
----------------------------------------------------|
----------------------------------------------------|
----------------------------------------------------|


-----------------7--5--3L-3-------------------------|
--10L---------10------------------------------------|
----------------------------------------------------|
----------------------------------------------------|
----------------------------------------------------|
----------------------------------------------------|


--------------------5--8----|--10-------10L10----12-10---|
----------------------------|----------------------------|
----------------------------|----------------------------|
----------------------------|----------------------------|
----------------------------|----------------------------|
----------------------------|----------------------------|


--------------------------------------------12-10---|
--10----------------------------------10------------|
----------------------------------------------------|
----------------------------------------------------|
----------------------------------------------------|
----------------------------------------------------|


-----------------7--5--3L-3-----------5-----12-10---|
--10L---------10------------------------------------|
----------------------------------------------------|
----------------------------------------------------|
----------------------------------------------------|
----------------------------------------------------|


-----------3L-3-----3--5----|--10----10-10----12-10-12---|
--10------------------------|----------------------------|
----------------------------|----------------------------|
----------------------------|----------------------------|
----------------------------|----------------------------|
----------------------------|----------------------------|


--12-15-12-10-12----15-12---|--17L---------------17-15---|
----------------------------|----------------------------|
----------------------------|----------------------------|
----------------------------|----------------------------|
----------------------------|----------------------------|
----------------------------|----------------------------|


--15----14-14-------15L15-15----14-14-15----15L15L--|
----------------------------------------------------|
----------------------------------------------------|
----------------------------------------------------|
----------------------------------------------------|
----------------------------------------------------|


--15-14L14L------14L14-12---|
----------------------------|
----------------------------|
----------------------------|
----------------------------|
----------------------------|


--12----10-10-10----12L12-------------12----10------|
--------------------------10L---10------------------|
----------------------------------------------------|
----------------------------------------------------|
----------------------------------------------------|
----------------------------------------------------|


--12-15L15----10L10----8----|
----------------------------|
----------------------------|
----------------------------|
----------------------------|
----------------------------|


--7-----7--7-----8-----8--7-----7-----------12L-----|
--------------------------------------10------------|
----------------------------------------------------|
----------------------------------------------------|
----------------------------------------------------|
----------------------------------------------------|


--12-5L-5L-------5----------|
----------------------------|
----------------------------|
----------------------------|
----------------------------|
----------------------------|

www.chordzone.org
 

--------------------------------------------12-10---|-------|
--------------------------------------10------------|--10L--|
----------------------------------------------------|-------|
----------------------------------------------------|-------|
----------------------------------------------------|-------|
----------------------------------------------------|-------|


--------------------------------------------12-10---|
--10----------------------------------10------------|
----------------------------------------------------|
----------------------------------------------------|
----------------------------------------------------|
----------------------------------------------------|


-----------------7--5--3L-3-------------------------|
--10L---------10------------------------------------|
----------------------------------------------------|
----------------------------------------------------|
----------------------------------------------------|
----------------------------------------------------|


--------------------5--8----|--10-------10L10----12-10---|
----------------------------|----------------------------|
----------------------------|----------------------------|
----------------------------|----------------------------|
----------------------------|----------------------------|
----------------------------|----------------------------|


--------------------------------------------12-10---|
--10----------------------------------10------------|
----------------------------------------------------|
----------------------------------------------------|
----------------------------------------------------|
----------------------------------------------------|


-----------------7--5--3L-3-----------5-----12-10---|
--10L---------10------------------------------------|
----------------------------------------------------|
----------------------------------------------------|
----------------------------------------------------|
----------------------------------------------------|


-----5L-------5--------3L-3--------------3-----5----|
----------------------------------------------------|
----------------------------------------------------|
----------------------------------------------------|
----------------------------------------------------|
----------------------------------------------------|


-----10----------10----10L10-------12----10----12---|
----------------------------------------------------|
----------------------------------------------------|
----------------------------------------------------|
----------------------------------------------------|
----------------------------------------------------|


-----12----15----12----10----12L------12-15----12L--|
----------------------------------------------------|
----------------------------------------------------|
----------------------------------------------------|
----------------------------------------------------|
----------------------------------------------------|


--12-17L------17L---------17L17L------17L17----15L--|
----------------------------------------------------|
----------------------------------------------------|
----------------------------------------------------|
----------------------------------------------------|
----------------------------------------------------|

www.chordzone.org
 

--15-15----14-14-------15L15-15----14-14-15----15L--|
----------------------------------------------------|
----------------------------------------------------|
----------------------------------------------------|
----------------------------------------------------|
----------------------------------------------------|


--15-------14L14L---------14L------14L14-------12L--|
----------------------------------------------------|
----------------------------------------------------|
----------------------------------------------------|
----------------------------------------------------|
----------------------------------------------------|


--12-12----10-10-10----12L12-------------12----10L--|
-----------------------------10L------10------------|
----------------------------------------------------|
----------------------------------------------------|
----------------------------------------------------|
----------------------------------------------------|


--10-12----15L15L---------15-10L------10L10----8L---|
----------------------------------------------------|
----------------------------------------------------|
----------------------------------------------------|
----------------------------------------------------|
----------------------------------------------------|


--8--7-----7--7-----8-----8--7-----7-----------12L--|
-----------------------------------------10---------|
----------------------------------------------------|
----------------------------------------------------|
----------------------------------------------------|
----------------------------------------------------|


--12-------5L-5L----------5L-------5L----------5L---|
----------------------------------------------------|
----------------------------------------------------|
----------------------------------------------------|
----------------------------------------------------|
----------------------------------------------------|


--5-------------------------------------------------||
----------------------------------------------------||
----------------------------------------------------||
----------------------------------------------------||
----------------------------------------------------||
----------------------------------------------------||


 

Recommended for you:


POPULAR SONGS

RELATED SONGS