Now Reading
JUBIN NAUTIYAL – Dil Galti Kar Baitha Hai Guitar Tabs

JUBIN NAUTIYAL – Dil Galti Kar Baitha Hai Guitar Tabs

Enable Light Mode
#
A+
A-

This single was released on 16 May 2020. The vocals are by Jubin Nautiyal, the music is produced by Manoj Muntashir, and the lyrics are written by Meet Bros .
This song is originally in the key of C# Minor. You can change it to any key you want, using the Transpose option. The average tempo is 90 BPM. These chords are simple and easy to play on the guitar, ukulele or piano.
Vocals: Jubin Nautiyal,
Producer: Meet Bros ,
Writer: Manoj Muntashir,

Click here for the chords and lyrics version

 
Original Key: C# Minor
Time Signature: 4/4
Tempo: 90
Suggested Strumming: DU,DU,DU,DU
c h o r d  z o n e . o r g

Legend
L - tied note
x - dead note
h - hammer on/pull off
b - bend
s - slide
~ - vibrato
g - ghost note
> - accentuated note
t - trill
M - palm mute
. - staccato
P - popping (bass)
S - slapping (bass)
+ - tapping
W - wide vibrato
< - fade in
w - whammy bar
= - tremolo picking
v - brush up
^ - brush down
V - pick stroke up
n - pick stroke down


E |----------------------------------------------------|
B |----------------------------------------------------|
G |-----------------------------------1--1-----2L-2----|
D |----------------------------------------------------|
A |----------------------------------------------------|
E |----------------------------------------------------|


----------------------------------------------------|
--0--------2--4-----4-----2--------2----------------|
--------------------------------------2-----2-------|
----------------------------------------------------|
----------------------------------------------------|
----------------------------------------------------|


----------------------------------------------------|
--2--------0--0-------------------------------------|
--------------------2--2--1--------1--1-----2-------|
----------------------------------------------------|
----------------------------------------------------|
----------------------------------------------------|


----------------------------------------------------|
--0--------2--4-----4-----2--------2----------------|
--------------------------------------2-----2-------|
----------------------------------------------------|
----------------------------------------------------|
----------------------------------------------------|


----------------------------------------------------|
--2--------0--0-------------------------------------|
--------------------2--2--1L-------1----------------|
----------------------------------------------------|
----------------------------------------------------|
----------------------------------------------------|


----------------------------------------------------|
----------------------------------------------------|
-----------------------------------1--1-----2L-2----|
----------------------------------------------------|
----------------------------------------------------|
----------------------------------------------------|


----------------------------------------------------|
--0--------2--4-----4-----2--------2----------------|
--------------------------------------2-----2-------|
----------------------------------------------------|
----------------------------------------------------|
----------------------------------------------------|


----------------------------------------------------|
--2--------0--0-------------------------------------|
--------------------2--2--1--------1--1-----2-------|
----------------------------------------------------|
----------------------------------------------------|
----------------------------------------------------|


--------------------0-----------------------0-------|
--0--------2--4-----------2--------2----------------|
--------------------------------------2-------------|
----------------------------------------------------|
----------------------------------------------------|
----------------------------------------------------|


--------------------------------------0-------------|
--2--------0--0-----------------------------4-------|
--------------------2--2--1--------1----------------|
----------------------------------------------------|
----------------------------------------------------|
----------------------------------------------------|


--------------------------------------0-------------|
--2--------0--------0-----2-----------------4-------|
--------------2--------------------1----------------|
----------------------------------------------------|
----------------------------------------------------|
----------------------------------------------------|


--------------------------------------0-------------|
--2--------0--------0-----4-----------------4-------|
--------------2--------------------1----------------|
----------------------------------------------------|
----------------------------------------------------|
----------------------------------------------------|


--------------------------------------0-------------|
--2--------0--------0-----2-----------------4-------|
--------------2--------------------1----------------|
----------------------------------------------------|
----------------------------------------------------|
----------------------------------------------------|


-----------------------------------4--4--4--4-------|
--2--------0--------0-----2-------------------------|
--------------2-------------------------------------|
----------------------------------------------------|
----------------------------------------------------|
----------------------------------------------------|


--4--------2--0-----------2--------0----------------|
--------------------4-----------------4-----2-------|
----------------------------------------------------|
----------------------------------------------------|
----------------------------------------------------|
----------------------------------------------------|


--0-----------------------------0-------------------|
-----------4--2-----0-----2--4-----4--2--0-----0----|
--------------------------------------------2-------|
----------------------------------------------------|
----------------------------------------------------|
----------------------------------------------------|


--------------------------------------0-------------|
--2-----2-----2--2--2-----------4-----------2-------|
--------------------------2-------------------------|
----------------------------------------------------|
----------------------------------------------------|
----------------------------------------------------|


----------------------------------------------------|
--------2-----2--2--2-----------0-------------------|
--------------------------2-----------2-----1-------|
----------------------------------------------------|
----------------------------------------------------|
----------------------------------------------------|


--------------------------------------0-------------|
--------2-----2--2--2-----------4-----------2-------|
--------------------------2-------------------------|
----------------------------------------------------|
----------------------------------------------------|
----------------------------------------------------|


----------------------------------------------------|
--------2-----2--2--2-----------0-------------------|
--------------------------2-----------2-----1-------|
----------------------------------------------------|
----------------------------------------------------|
----------------------------------------------------|

www.chordzone.org
 

--------4-----4--4--4-----2--5--4--2----------------|
--------------------------------------4--------4----|
----------------------------------------------------|
----------------------------------------------------|
----------------------------------------------------|
----------------------------------------------------|


--2--------0----------------------------------------|
--------------4-----2-----------2-------------------|
--------------------------2-----------2-----1-------|
----------------------------------------------------|
----------------------------------------------------|
----------------------------------------------------|


-----------0----------------------------------------|
--4-----4-----4-----2--------------2--0-----2-------|
----------------------------------------------------|
----------------------------------------------------|
----------------------------------------------------|
----------------------------------------------------|


-----------0----------------------------------------|
--4-----4-----4-----2--------------2--0-----2-------|
----------------------------------------------------|
----------------------------------------------------|
----------------------------------------------------|
----------------------------------------------------|


-----------0-----------------------4--4--5--4--2----|
--4-----4-----4-----2-------------------------------|
----------------------------------------------------|
----------------------------------------------------|
----------------------------------------------------|
----------------------------------------------------|


-----------0----------------------------------------|----------------|
--4-----4-----4-----2-----------0--------0----------|--2-------------|
--------------------------2-----------2-----1--2----|----------------|
----------------------------------------------------|----------------|
----------------------------------------------------|----------------|
----------------------------------------------------|----------------|


----------------------------------------------------|
----------------------------------------------------|
-----------------------------------1--1-----2L-2----|
----------------------------------------------------|
----------------------------------------------------|
----------------------------------------------------|


----------------------------------------------------|
--0--------2--4-----4-----2--------2----------------|
--------------------------------------2-----2-------|
----------------------------------------------------|
----------------------------------------------------|
----------------------------------------------------|


----------------------------------------------------|
--2--------0--0-------------------------------------|
--------------------2--2--1--------1--1-----2-------|
----------------------------------------------------|
----------------------------------------------------|
----------------------------------------------------|


----------------------------------------------------|
--0--------2--4-----4-----2--------2----------------|
--------------------------------------2-----2-------|
----------------------------------------------------|
----------------------------------------------------|
----------------------------------------------------|


----------------------------------------------------|
--2--------0--0-------------------------------------|
--------------------2--2--1L-------1----------------|
----------------------------------------------------|
----------------------------------------------------|
----------------------------------------------------|


----------------------------------------------------|
----------------------------------------------------|
-----------------------------------1--1-----2L-2----|
----------------------------------------------------|
----------------------------------------------------|
----------------------------------------------------|


----------------------------------------------------|
--0--------2--4-----4-----2--------2----------------|
--------------------------------------2-----2-------|
----------------------------------------------------|
----------------------------------------------------|
----------------------------------------------------|


----------------------------------------------------|
--2--------0--0-------------------------------------|
--------------------2--2--1--------1--1-----2-------|
----------------------------------------------------|
----------------------------------------------------|
----------------------------------------------------|


--------------------0-----------------------0-------|
--0--------2--4-----------2--------2----------------|
--------------------------------------2-------------|
----------------------------------------------------|
----------------------------------------------------|
----------------------------------------------------|


--------------------------------------0-------------|
--2--------0--0-----------------------------4-------|
--------------------2--2--1--------1----------------|
----------------------------------------------------|
----------------------------------------------------|
----------------------------------------------------|


--------------------------------------0-------------|
--2--------0--------0-----2-----------------4-------|
--------------2--------------------1----------------|
----------------------------------------------------|
----------------------------------------------------|
----------------------------------------------------|


--------------------------------------0-------------|
--2--------0--------0-----4-----------------4-------|
--------------2--------------------1----------------|
----------------------------------------------------|
----------------------------------------------------|
----------------------------------------------------|


--------------------------------------0-------------|
--2--------0--------0-----2-----------------4-------|
--------------2--------------------1----------------|
----------------------------------------------------|
----------------------------------------------------|
----------------------------------------------------|


-----------------------------------4--4--4--4-------|
--2--------0--------0-----2-------------------------|
--------------2-------------------------------------|
----------------------------------------------------|
----------------------------------------------------|
----------------------------------------------------|


--4--------2--0-----------2--------0----------------|
--------------------4-----------------4-----2-------|
----------------------------------------------------|
----------------------------------------------------|
----------------------------------------------------|
----------------------------------------------------|


--0-----------------------------0-------------------|
-----------4--2-----0-----2--4-----4--2--0-----0----|
--------------------------------------------2-------|
----------------------------------------------------|
----------------------------------------------------|
----------------------------------------------------|


--------------------------------------0-------------|
--2-----2-----2--2--2-----------4-----------2-------|
--------------------------2-------------------------|
----------------------------------------------------|
----------------------------------------------------|
----------------------------------------------------|


----------------------------------------------------|
--------2-----2--2--2-----------0-------------------|
--------------------------2-----------2-----1-------|
----------------------------------------------------|
----------------------------------------------------|
----------------------------------------------------|


--------------------------------------0-------------|
--------2-----2--2--2-----------4-----------2-------|
--------------------------2-------------------------|
----------------------------------------------------|
----------------------------------------------------|
----------------------------------------------------|

www.chordzone.org
 

----------------------------------------------------|
--------2-----2--2--2-----------0-------------------|
--------------------------2-----------2-----1-------|
----------------------------------------------------|
----------------------------------------------------|
----------------------------------------------------|


--------4-----4--4--4-----2--5--4--2----------------|
--------------------------------------4--------4----|
----------------------------------------------------|
----------------------------------------------------|
----------------------------------------------------|
----------------------------------------------------|


--2--------0----------------------------------------|
--------------4-----2-----------2-------------------|
--------------------------2-----------2-----1-------|
----------------------------------------------------|
----------------------------------------------------|
----------------------------------------------------|


-----------0----------------------------------------|
--4-----4-----4-----2--------------2--0-----2-------|
----------------------------------------------------|
----------------------------------------------------|
----------------------------------------------------|
----------------------------------------------------|


-----------0----------------------------------------|
--4-----4-----4-----2--------------2--0-----2-------|
----------------------------------------------------|
----------------------------------------------------|
----------------------------------------------------|
----------------------------------------------------|


-----------0-----------------------4--4--5--4--2----|
--4-----4-----4-----2-------------------------------|
----------------------------------------------------|
----------------------------------------------------|
----------------------------------------------------|
----------------------------------------------------|


-----------0----------------------------------------|
--4-----4-----4-----2-----------0--------0----------|
--------------------------2-----------2-----1--2----|
----------------------------------------------------|
----------------------------------------------------|
----------------------------------------------------|


----------------------------------------------------||
--2L----------------------2-------------------------||
----------------------------------------------------||
----------------------------------------------------||
----------------------------------------------------||
----------------------------------------------------||


 

Recommended for you:


Click to rate this post!
[Total: 0 Average: 0]