Now Reading
PITBULL – Hotel Room Service Guitar Tabs

PITBULL – Hotel Room Service Guitar Tabs

Enable Light Mode
#
A+
A-

This song is from the album Pitbull Starring In: Rebelution(2009), released on 16 June 2009. The vocals are by Pitbull . The music is produced by Jim Jonsin, and the lyrics are written by Jim Jonsin , Pitbull.
It is originally in the key of B Minor. You can change it to any key you want, using the Transpose option. The average tempo is 124 BPM. These chords are simple and easy to play on the guitar or piano.
Vocals: Pitbull ,
Producer(s): Jim Jonsin,
Writer(s): Jim Jonsin , Pitbull,

Click here for the chords and lyrics version

Requested By Jose I Morales

 
Original Key: B Minor
Time Signature: 4/4
Tempo: 124
Suggested Strumming: DU,DU,DU,DU
c h o r d  z o n e . o r g

 

Legend
L - tied note
x - dead note
h - hammer on/pull off
b - bend
s - slide
~ - vibrato
g - ghost note
> - accentuated note
t - trill
M - palm mute
. - staccato
P - popping (bass)
S - slapping (bass)
+ - tapping
W - wide vibrato
< - fade in
w - whammy bar
= - tremolo picking
v - brush up
^ - brush down
V - pick stroke up
n - pick stroke down


E |----------------------------|
B |-----------------------0----|
G |----------------------------|
D |----------------------------|
A |----------------------------|
E |----------------------------|


--------------------0-----5--------2--------2-------|
--0-----0-----3-------------------------------------|
----------------------------------------------------|
----------------------------------------------------|
----------------------------------------------------|
----------------------------------------------------|


--------------------0-------------------------------|
--0-----0-----3-----------2--------2--------2-------|
----------------------------------------------------|
----------------------------------------------------|
----------------------------------------------------|
----------------------------------------------------|

www.chordzone.org
 

--------------------0-----5--------2--------2-------|
--0-----0-----3-------------------------------------|
----------------------------------------------------|
----------------------------------------------------|
----------------------------------------------------|
----------------------------------------------------|


--------------------0-------------------------------|
--0-----0-----3-----------2--------2--------2-------|
----------------------------------------------------|
----------------------------------------------------|
----------------------------------------------------|
----------------------------------------------------|


--------------------0-----5--------2--------2-------|
--0-----0-----3-------------------------------------|
----------------------------------------------------|
----------------------------------------------------|
----------------------------------------------------|
----------------------------------------------------|


--------------------0-------------------------------|
--0-----0-----3-----------2--------2--------2-------|
----------------------------------------------------|
----------------------------------------------------|
----------------------------------------------------|
----------------------------------------------------|


--------------------0-----5--------2--------2-------|
--0-----0-----3-------------------------------------|
----------------------------------------------------|
----------------------------------------------------|
----------------------------------------------------|
----------------------------------------------------|


-----------0-----0--2--2----|--2--2--2--2----|--2--2--2--2L-2--0--2--2----|
--0--0--3-----2-------------|----------------|----------------------------|
----------------------------|----------------|----------------------------|
----------------------------|----------------|----------------------------|
----------------------------|----------------|----------------------------|
----------------------------|----------------|----------------------------|


--2--2--2--2----|--2--2--2--2L-2-------------|
----------------|-----------------0--0--0----|
----------------|----------------------------|
----------------|----------------------------|
----------------|----------------------------|
----------------|----------------------------|


--------------------0-----5--------2--------2-------|
--0-----0-----3-------------------------------------|
----------------------------------------------------|
----------------------------------------------------|
----------------------------------------------------|
----------------------------------------------------|


--------------------0-------------------------------|
--0-----0-----3-----------2--------2--------2-------|
----------------------------------------------------|
----------------------------------------------------|
----------------------------------------------------|
----------------------------------------------------|


--------------------0-----5--------2--------2-------|
--0-----0-----3-------------------------------------|
----------------------------------------------------|
----------------------------------------------------|
----------------------------------------------------|
----------------------------------------------------|


--------------------0-------------------------------|-------|
--0-----0-----3-----------2--------2--------2L------|--2----|
----------------------------------------------------|-------|
----------------------------------------------------|-------|
----------------------------------------------------|-------|
----------------------------------------------------|-------|


----------------------------|
-----------------------0----|
----------------------------|
----------------------------|
----------------------------|
----------------------------|


--------------------0-----5--------2--------2-------|
--0-----0-----3-------------------------------------|
----------------------------------------------------|
----------------------------------------------------|
----------------------------------------------------|
----------------------------------------------------|


--------------------0-------------------------------|
--0-----0-----3-----------2--------2--------2-------|
----------------------------------------------------|
----------------------------------------------------|
----------------------------------------------------|
----------------------------------------------------|


--------------------0-----5--------2--------2-------|
--0-----0-----3-------------------------------------|
----------------------------------------------------|
----------------------------------------------------|
----------------------------------------------------|
----------------------------------------------------|


--------------------0-------------------------------|
--0-----0-----3-----------2--------2--------2-------|
----------------------------------------------------|
----------------------------------------------------|
----------------------------------------------------|
----------------------------------------------------|


--------------------0-----5--------2--------2-------|
--0-----0-----3-------------------------------------|
----------------------------------------------------|
----------------------------------------------------|
----------------------------------------------------|
----------------------------------------------------|


--------------------0-------------------------------|
--0-----0-----3-----------2--------2--------2-------|
----------------------------------------------------|
----------------------------------------------------|
----------------------------------------------------|
----------------------------------------------------|


--------------------0-----5--------2--------2-------|
--0-----0-----3-------------------------------------|
----------------------------------------------------|
----------------------------------------------------|
----------------------------------------------------|
----------------------------------------------------|


-----------0-----0--2--2----|--2--2--2--2----|--2--2--2--2L-2--0--2--2----|
--0--0--3-----2-------------|----------------|----------------------------|
----------------------------|----------------|----------------------------|
----------------------------|----------------|----------------------------|
----------------------------|----------------|----------------------------|
----------------------------|----------------|----------------------------|

www.chordzone.org
 

--2--2--2--2----|--2--2--2--2L-2-------------|
----------------|-----------------0--0--0----|
----------------|----------------------------|
----------------|----------------------------|
----------------|----------------------------|
----------------|----------------------------|


--------------------0-----5--------2--------2-------|
--0-----0-----3-------------------------------------|
----------------------------------------------------|
----------------------------------------------------|
----------------------------------------------------|
----------------------------------------------------|


--------------------0-------------------------------|
--0-----0-----3-----------2--------2--------2-------|
----------------------------------------------------|
----------------------------------------------------|
----------------------------------------------------|
----------------------------------------------------|


--------------------0-----5--------2--------2-------|
--0-----0-----3-------------------------------------|
----------------------------------------------------|
----------------------------------------------------|
----------------------------------------------------|
----------------------------------------------------|


--------------------0-------------------------------|
--0-----0-----3-----------2--------2--------2L------|
----------------------------------------------------|
----------------------------------------------------|
----------------------------------------------------|
----------------------------------------------------|


----------------------------||
--2L----------------2-------||
----------------------------||
----------------------------||
----------------------------||
----------------------------||


Recommended for you:


Click to rate this post!
[Total: 0 Average: 0]

To The Top Get The Guitar Tabs

See Also