Now Reading
SHIRLEY SETIA, GURNAZAR – Tere Naal Rehniya Guitar Tabs

SHIRLEY SETIA, GURNAZAR – Tere Naal Rehniya Guitar Tabs

Enable Light Mode
#
A+
A-

This single was released on 25 September 2021. The vocals are by Shirley Setia, Gurnazar, the music is produced by Gurnazar, Shirley Setia, and the lyrics are written by Gaurav Dev , Kartik Dev.
This song is originally in the key of Eb Major. You can change it to any key you want, using the Transpose option. The average tempo is 90 BPM. These chords are simple and easy to play on the guitar, ukulele or piano.

Click here for the chords and lyrics version

 
Original Key: Eb Major
Time Signature: 4/4
Tempo: 90
Suggested Strumming: DU,DU,DU,DU
c h o r d  z o n e . o r g

 
Legend
L - tied note
x - dead note
h - hammer on/pull off
b - bend
s - slide
~ - vibrato
g - ghost note
> - accentuated note
t - trill
M - palm mute
. - staccato
P - popping (bass)
S - slapping (bass)
+ - tapping
W - wide vibrato
< - fade in
w - whammy bar
= - tremolo picking
v - brush up
^ - brush down
V - pick stroke up
n - pick stroke down


E |--------------------3--3L---|
B |----------------------------|
G |----------------------------|
D |----------------------------|
A |----------------------------|
E |----------------------------|


--3-----1-----3--1--------------------1-----3L------|
-----------------------4--4-----4-------------------|
----------------------------------------------------|
----------------------------------------------------|
----------------------------------------------------|
----------------------------------------------------|


--3-----1-----3--1--------------------3-----3L------|
-----------------------4--1-----4-------------------|
----------------------------------------------------|
----------------------------------------------------|
----------------------------------------------------|
----------------------------------------------------|


--3-----1-----3--1-----------------6--3-----3L------|
-----------------------4--4-----4-------------------|
----------------------------------------------------|
----------------------------------------------------|
----------------------------------------------------|
----------------------------------------------------|


--3-----1-----3--1--------------------3-----3--4----|
-----------------------4--4-----4-------------------|
----------------------------------------------------|
----------------------------------------------------|
----------------------------------------------------|
----------------------------------------------------|


--6--------6-----1-----1--1-----1-----1-----1--3----|
----------------------------------------------------|
----------------------------------------------------|
----------------------------------------------------|
----------------------------------------------------|
----------------------------------------------------|


--4-----3L----3-----1-----3-----1-----3--1----------|
-----------------------------------------------4L---|
----------------------------------------------------|
----------------------------------------------------|
----------------------------------------------------|
----------------------------------------------------|


-----------------------3--1-----------------1--3----|
--4-----3-----3--4----------------------------------|
----------------------------------------------------|
----------------------------------------------------|
----------------------------------------------------|
----------------------------------------------------|


--4--3--1L----1-----1-----1-----6--------4--3-------|
----------------------------------------------------|
----------------------------------------------------|
----------------------------------------------------|
----------------------------------------------------|
----------------------------------------------------|


--3--------4--3-----1-------------------------------|
--------------------------4-----------------3-------|
----------------------------------------------------|
----------------------------------------------------|
----------------------------------------------------|
----------------------------------------------------|

www.chordzone.org
 

--3-----1-----------1-----1-----6--------4--3-------|
----------------------------------------------------|
----------------------------------------------------|
----------------------------------------------------|
----------------------------------------------------|
----------------------------------------------------|


--3--------4--3-----1-------------------------------|
--------------------------4-------------------------|
----------------------------------------------------|
----------------------------------------------------|
----------------------------------------------------|
----------------------------------------------------|


--------------------1-----1-----6--------4--3-------|
----------------------------------------------------|
----------------------------------------------------|
----------------------------------------------------|
----------------------------------------------------|
----------------------------------------------------|


--3--------4--3-----1-------------------------------|
--------------------------4-----------------3-------|
----------------------------------------------------|
----------------------------------------------------|
----------------------------------------------------|
----------------------------------------------------|


--3-----1-----------1-----1-----6--------4--3-------|
----------------------------------------------------|
----------------------------------------------------|
----------------------------------------------------|
----------------------------------------------------|
----------------------------------------------------|


--3--------4--3-----1-------------------------------|----------|
--------------------------4L------------------------|--4-------|
----------------------------------------------------|----------|
----------------------------------------------------|----------|
----------------------------------------------------|----------|
----------------------------------------------------|----------|


--------------------3--3L---|
----------------------------|
----------------------------|
----------------------------|
----------------------------|
----------------------------|


--3-----1-----3--1--------------------1-----3L------|
-----------------------4--4-----4-------------------|
----------------------------------------------------|
----------------------------------------------------|
----------------------------------------------------|
----------------------------------------------------|


--3-----1-----3--1--------------------3-----3L------|
-----------------------4--1-----4-------------------|
----------------------------------------------------|
----------------------------------------------------|
----------------------------------------------------|
----------------------------------------------------|


--3-----1-----3--1-----------------6--3-----3L------|
-----------------------4--4-----4-------------------|
----------------------------------------------------|
----------------------------------------------------|
----------------------------------------------------|
----------------------------------------------------|


--3-----1-----3--1--------------------3-----3--4----|
-----------------------4--4-----4-------------------|
----------------------------------------------------|
----------------------------------------------------|
----------------------------------------------------|
----------------------------------------------------|


--6--------6-----1-----1--1-----1-----1-----1--3----|
----------------------------------------------------|
----------------------------------------------------|
----------------------------------------------------|
----------------------------------------------------|
----------------------------------------------------|


--4-----3L----3-----1-----3-----1-----3--1----------|
-----------------------------------------------4L---|
----------------------------------------------------|
----------------------------------------------------|
----------------------------------------------------|
----------------------------------------------------|


-----------------------3--1-----------------1--3----|
--4-----3-----3--4----------------------------------|
----------------------------------------------------|
----------------------------------------------------|
----------------------------------------------------|
----------------------------------------------------|


--4--3--1L----1-----1-----1-----6--------4--3-------|
----------------------------------------------------|
----------------------------------------------------|
----------------------------------------------------|
----------------------------------------------------|
----------------------------------------------------|


--3--------4--3-----1-------------------------------|
--------------------------4-----------------3-------|
----------------------------------------------------|
----------------------------------------------------|
----------------------------------------------------|
----------------------------------------------------|

www.chordzone.org
 

--3-----1-----------1-----1-----6--------4--3-------|
----------------------------------------------------|
----------------------------------------------------|
----------------------------------------------------|
----------------------------------------------------|
----------------------------------------------------|


--3--------4--3-----1-------------------------------|
--------------------------4-------------------------|
----------------------------------------------------|
----------------------------------------------------|
----------------------------------------------------|
----------------------------------------------------|


--------------------1-----1-----6--------4--3-------|
----------------------------------------------------|
----------------------------------------------------|
----------------------------------------------------|
----------------------------------------------------|
----------------------------------------------------|


--3--------4--3-----1-------------------------------|
--------------------------4-----------------3-------|
----------------------------------------------------|
----------------------------------------------------|
----------------------------------------------------|
----------------------------------------------------|


--3-----1-----------1-----1-----6--------4--3-------|
----------------------------------------------------|
----------------------------------------------------|
----------------------------------------------------|
----------------------------------------------------|
----------------------------------------------------|


--3--------4--3-----1-------------------------------|----------||
--------------------------4L------------------------|--4-------||
----------------------------------------------------|----------||
----------------------------------------------------|----------||
----------------------------------------------------|----------||
----------------------------------------------------|----------||


Recommended for you:


Click to rate this post!
[Total: 0 Average: 0]

To The Top Get The Guitar Tabs

See Also