skip to content

KATY PERRY – Harleys In Hawaii Guitar Tabs

#
A+
A-

This single was released on 16 October 2019. The vocals are by Katy Perry, the music is produced by Johan Carlsson, Jacob Kasher, and the lyrics are written by Johan Carlsson , Charlie Puth.
This song is originally in the key of Bb Minor. You can change it to any key you want, using the Transpose option. The average tempo is 123 BPM. These chords are simple and easy to play on the guitar, ukulele or piano.

Click here for the chords and lyrics version

 
Original Key: Bb Minor
Time Signature: 4/4
Tempo: 123
Suggested Strumming: DU,DU,DU,DU
c h o r d  z o n e . o r g

 
Legend
L - tied note
x - dead note
h - hammer on/pull off
b - bend
s - slide
~ - vibrato
g - ghost note
> - accentuated note
t - trill
M - palm mute
. - staccato
P - popping (bass)
S - slapping (bass)
+ - tapping
W - wide vibrato
< - fade in
w - whammy bar
= - tremolo picking
v - brush up
^ - brush down
V - pick stroke up
n - pick stroke down


E |-------|--1-------------------------|----------------------------|
B |-------|-----------2--2--4--6-------|-----------2--1--------4----|
G |-------|-----------------------6----|--3-------------------------|
D |-------|----------------------------|----------------------------|
A |-------|----------------------------|----------------------------|
E |-------|----------------------------|----------------------------|


----------------------------|--6--4----------|--1-------------------------|
--2--------2--2--4--6-------|--------6--4----|-----------2--2--4--6-------|
-----------------------6----|----------------|-----------------------6----|
----------------------------|----------------|----------------------------|
----------------------------|----------------|----------------------------|
----------------------------|----------------|----------------------------|


----------------------------|----------------------------|
-----------2--1--------4----|--2--------2--2--4--6-------|
--3-------------------------|-----------------------6----|
----------------------------|----------------------------|
----------------------------|----------------------------|
----------------------------|----------------------------|


--6-----4--------1--1--4----|--8--------6L-6--1--1--2----|
----------------------------|----------------------------|
----------------------------|----------------------------|
----------------------------|----------------------------|
----------------------------|----------------------------|
----------------------------|----------------------------|


--4--------2L-2-----2-------|
----------------------------|
----------------------------|
----------------------------|
----------------------------|
----------------------------|


--1--------1--------1-----1--------1--------1-------|
----------------------------------------------------|
----------------------------------------------------|
----------------------------------------------------|
----------------------------------------------------|
----------------------------------------------------|


--1--------------1--1--4----|--8--------6L-6--1--1--2----|
--------4-------------------|----------------------------|
----------------------------|----------------------------|
----------------------------|----------------------------|
----------------------------|----------------------------|
----------------------------|----------------------------|


--4--------2L-2-----2-------|
----------------------------|
----------------------------|
----------------------------|
----------------------------|
----------------------------|


--1--------1--------------9--------8--------4-------|--4--2----------|
--------------------6-------------------------------|----------------|
----------------------------------------------------|----------------|
----------------------------------------------------|----------------|
----------------------------------------------------|----------------|
----------------------------------------------------|----------------|


www.chordzone.org
 
----------------------------|----------------------------|
--1-----1-----------1-------|-----1--1--1--1--4--2--1----|
-----3-----3-----------3----|----------------------------|
----------------------------|----------------------------|
----------------------------|----------------------------|
----------------------------|----------------------------|


----------------------------|----------------------------|
--1-----1-----------1-------|-----1--1--1--1--4--2--1----|
-----3-----3-----------3----|----------------------------|
----------------------------|----------------------------|
----------------------------|----------------------------|
----------------------------|----------------------------|


----------------------------|----------------------------|
--1-----1-----------1-------|-----1--1--1--1--4--2--1----|
-----3-----3-----------3----|----------------------------|
----------------------------|----------------------------|
----------------------------|----------------------------|
----------------------------|----------------------------|


----------------------------|----------|----------------------------|
--1-----1-----------2--1----|----------|--1-----1-----------1-------|
-----3-----3----------------|----------|-----3-----3-----------3----|
----------------------------|--4--3----|----------------------------|
----------------------------|----------|----------------------------|
----------------------------|----------|----------------------------|


----------------------------|----------------------------|
-----1--1--1--1--4--2--1----|--1-----1-----------1-------|
----------------------------|-----3-----3-----------3----|
----------------------------|----------------------------|
----------------------------|----------------------------|
----------------------------|----------------------------|


----------------------------|----------------------------|
-----1--1--1--1--4--2--1----|--1-----1-----------1-------|
----------------------------|-----3-----3-----------3----|
----------------------------|----------------------------|
----------------------------|----------------------------|
----------------------------|----------------------------|


----------------------------|----------------------------|----------|-------|
-----1--1--1--1--4--2--1----|--1-----1-----------2--1----|----------|-------|
----------------------------|-----3-----3----------------|----------|-------|
----------------------------|----------------------------|--4--3L---|--3----|
----------------------------|----------------------------|----------|-------|
----------------------------|----------------------------|----------|-------|


-------|--1-----------------1-------|----------------------------|
-------|-----------2--2--4-----2----|-----------2--1--------4----|
-------|----------------------------|--3-------------------------|
-------|----------------------------|----------------------------|
-------|----------------------------|----------------------------|
-------|----------------------------|----------------------------|


----------------------------|--6--4----------|--1-------------------------|
--2--------2--2--4--6-------|--------6--4----|-----------2--2--4--6-------|
-----------------------6----|----------------|-----------------------6----|
----------------------------|----------------|----------------------------|
----------------------------|----------------|----------------------------|
----------------------------|----------------|----------------------------|


----------------------------|----------------------------|
-----------2--1--------4----|--2--------2--2--4--6-------|
--3-------------------------|-----------------------6----|
----------------------------|----------------------------|
----------------------------|----------------------------|
----------------------------|----------------------------|


--6-----4--------1--1--4----|--8--------6L-6--1--1--2----|
----------------------------|----------------------------|
----------------------------|----------------------------|
----------------------------|----------------------------|
----------------------------|----------------------------|
----------------------------|----------------------------|


--4--------2L-2-----2-------|
----------------------------|
----------------------------|
----------------------------|
----------------------------|
----------------------------|


--1--------1--------1-----1--------1--------1-------|
----------------------------------------------------|
----------------------------------------------------|
----------------------------------------------------|
----------------------------------------------------|
----------------------------------------------------|


--1--------------1--1--4----|--8--------6L-6--1--1--2----|
--------4-------------------|----------------------------|
----------------------------|----------------------------|
----------------------------|----------------------------|
----------------------------|----------------------------|
----------------------------|----------------------------|


--4--------2L-2-----2-------|
----------------------------|
----------------------------|
----------------------------|
----------------------------|
----------------------------|


--1--------1--------------9--------8--------4-------|--4--2----------|
--------------------6-------------------------------|----------------|
----------------------------------------------------|----------------|
----------------------------------------------------|----------------|
----------------------------------------------------|----------------|
----------------------------------------------------|----------------|


----------------------------|----------------------------|
--1-----1-----------1-------|-----1--1--1--1--4--2--1----|
-----3-----3-----------3----|----------------------------|
----------------------------|----------------------------|
----------------------------|----------------------------|
----------------------------|----------------------------|


----------------------------|----------------------------|
--1-----1-----------1-------|-----1--1--1--1--4--2--1----|
-----3-----3-----------3----|----------------------------|
----------------------------|----------------------------|
----------------------------|----------------------------|
----------------------------|----------------------------|


----------------------------|----------------------------|
--1-----1-----------1-------|-----1--1--1--1--4--2--1----|
-----3-----3-----------3----|----------------------------|
----------------------------|----------------------------|
----------------------------|----------------------------|
----------------------------|----------------------------|

www.chordzone.org
 

----------------------------|----------|----------------------------|
--1-----1-----------2--1----|----------|--1-----1-----------1-------|
-----3-----3----------------|----------|-----3-----3-----------3----|
----------------------------|--4--3----|----------------------------|
----------------------------|----------|----------------------------|
----------------------------|----------|----------------------------|


----------------------------|----------------------------|
-----1--1--1--1--4--2--1----|--1-----1-----------1-------|
----------------------------|-----3-----3-----------3----|
----------------------------|----------------------------|
----------------------------|----------------------------|
----------------------------|----------------------------|


----------------------------|----------------------------|
-----1--1--1--1--4--2--1----|--1-----1-----------1-------|
----------------------------|-----3-----3-----------3----|
----------------------------|----------------------------|
----------------------------|----------------------------|
----------------------------|----------------------------|


----------------------------|
-----1--1--1--1--4--2--1----|
----------------------------|
----------------------------|
----------------------------|
----------------------------|


----------------------------------------------------|----------|
--1-----------1-----------------------2-----1-------|----------|
--------3-----------3-------------------------------|----------|
----------------------------------------------------|--4--3L---|
----------------------------------------------------|----------|
----------------------------------------------------|----------|


----------------------------||
----------------------------||
----------------------------||
--3L----------------3-------||
----------------------------||
----------------------------||


Recommended for you:


POPULAR SONGS

RELATED SONGS