skip to content

LUKAS GRAHAM – Mama Said Guitar Tabs

#
A+
A-

This song is from the album Lukas Graham(2014), released on 23 June 2014. The vocals are by Lukas Graham, the music is produced by Lukas Forchhammer, Morten Ristorp, Stefan Forrest, Morten Pilegaard, and the lyrics are written by Future Animals, Pilo.
This song is originally in the key of G Minor. You can change it to any key you want, using the Transpose option. The average tempo is 84 BPM. These chords are simple and easy to play on the guitar, ukulele or piano.

Click here for the chords and lyrics version

 
Original Key: G Minor
Time Signature: 4/4
Tempo: 84
Suggested Strumming: DU,DU,DU,DU
c h o r d  z o n e . o r g

 
Legend
L - tied note
x - dead note
h - hammer on/pull off
b - bend
s - slide
~ - vibrato
g - ghost note
> - accentuated note
t - trill
M - palm mute
. - staccato
P - popping (bass)
S - slapping (bass)
+ - tapping
W - wide vibrato
< - fade in
w - whammy bar
= - tremolo picking
v - brush up
^ - brush down
V - pick stroke up
n - pick stroke down


E |-----------------------------6--10-8--8--8--8--6----|
B |----------------------------------------------------|
G |----------------------------------------------------|
D |----------------------------------------------------|
A |----------------------------------------------------|
E |----------------------------------------------------|


--8--8--10----------------3--6--6--6--6--6--6--6----|
----------------------------------------------------|
----------------------------------------------------|
----------------------------------------------------|
----------------------------------------------------|
----------------------------------------------------|


--8--6--6--------------------6--10-8--8--8--8--6----|
----------------------------------------------------|
----------------------------------------------------|
----------------------------------------------------|
----------------------------------------------------|
----------------------------------------------------|


--8--8--10----------------3--6--6--6--6--6--6--6----|
----------------------------------------------------|
----------------------------------------------------|
----------------------------------------------------|
----------------------------------------------------|
----------------------------------------------------|


--8--6--6--------------------10-10-13-13----13------|
----------------------------------------------------|
----------------------------------------------------|
----------------------------------------------------|
----------------------------------------------------|
----------------------------------------------------|


--13-11-10L---10----------3--6--6-----6--6--6--6----|
----------------------------------------------------|
----------------------------------------------------|
----------------------------------------------------|
----------------------------------------------------|
----------------------------------------------------|


--8--6--6--------------------10-10-13-13----13------|
----------------------------------------------------|
----------------------------------------------------|
----------------------------------------------------|
----------------------------------------------------|
----------------------------------------------------|


--13-11-10L---10----------3--6--6-----6--6--6--6----|
----------------------------------------------------|
----------------------------------------------------|
----------------------------------------------------|
----------------------------------------------------|
----------------------------------------------------|


--8--6--6-----------------------6--6--3--6--6--6----|
----------------------------------------------------|
----------------------------------------------------|
----------------------------------------------------|
----------------------------------------------------|
----------------------------------------------------|


--8-----3L----3-----------------6--6--3--6--6--6----|
----------------------------------------------------|
----------------------------------------------------|
----------------------------------------------------|
----------------------------------------------------|
----------------------------------------------------|


--13-------10-------3-----------6--6--3--6--6--6----|
----------------------------------------------------|
----------------------------------------------------|
----------------------------------------------------|
----------------------------------------------------|
----------------------------------------------------|


--13-------10-------3--------6--6--6--10----8L------|
----------------------------------------------------|
----------------------------------------------------|
----------------------------------------------------|
----------------------------------------------------|
----------------------------------------------------|


--8-----------------------------6--6--3--6--6--6----|
----------------------------------------------------|
----------------------------------------------------|
----------------------------------------------------|
----------------------------------------------------|
----------------------------------------------------|


--8-----3L----3-----------------6--6--3--6--6--6----|
----------------------------------------------------|
----------------------------------------------------|
----------------------------------------------------|
----------------------------------------------------|
----------------------------------------------------|

www.chordzone.org
 

--13-------10-------3-----------6--6--3--6--6--6----|
----------------------------------------------------|
----------------------------------------------------|
----------------------------------------------------|
----------------------------------------------------|
----------------------------------------------------|


--13-------10-------3--------6--6--6--10----8L------|--8-------------|
----------------------------------------------------|----------------|
----------------------------------------------------|----------------|
----------------------------------------------------|----------------|
----------------------------------------------------|----------------|
----------------------------------------------------|----------------|


-----------------------------6--10-8--8--8--8--6----|
----------------------------------------------------|
----------------------------------------------------|
----------------------------------------------------|
----------------------------------------------------|
----------------------------------------------------|


--8--8--10----------------3--6--6--6--6--6--6--6----|
----------------------------------------------------|
----------------------------------------------------|
----------------------------------------------------|
----------------------------------------------------|
----------------------------------------------------|


--8--6--6--------------------6--10-8--8--8--8--6----|
----------------------------------------------------|
----------------------------------------------------|
----------------------------------------------------|
----------------------------------------------------|
----------------------------------------------------|


--8--8--10----------------3--6--6--6--6--6--6--6----|
----------------------------------------------------|
----------------------------------------------------|
----------------------------------------------------|
----------------------------------------------------|
----------------------------------------------------|


--8--6--6--------------------10-10-13-13----13------|
----------------------------------------------------|
----------------------------------------------------|
----------------------------------------------------|
----------------------------------------------------|
----------------------------------------------------|


--13-11-10L---10----------3--6--6-----6--6--6--6----|
----------------------------------------------------|
----------------------------------------------------|
----------------------------------------------------|
----------------------------------------------------|
----------------------------------------------------|


--8--6--6--------------------10-10-13-13----13------|
----------------------------------------------------|
----------------------------------------------------|
----------------------------------------------------|
----------------------------------------------------|
----------------------------------------------------|


--13-11-10L---10----------3--6--6-----6--6--6--6----|
----------------------------------------------------|
----------------------------------------------------|
----------------------------------------------------|
----------------------------------------------------|
----------------------------------------------------|


--8--6--6-----------------------6--6--3--6--6--6----|
----------------------------------------------------|
----------------------------------------------------|
----------------------------------------------------|
----------------------------------------------------|
----------------------------------------------------|

www.chordzone.org
 

--8-----3L----3-----------------6--6--3--6--6--6----|
----------------------------------------------------|
----------------------------------------------------|
----------------------------------------------------|
----------------------------------------------------|
----------------------------------------------------|


--13-------10-------3-----------6--6--3--6--6--6----|
----------------------------------------------------|
----------------------------------------------------|
----------------------------------------------------|
----------------------------------------------------|
----------------------------------------------------|


--13-------10-------3--------6--6--6--10----8L------|
----------------------------------------------------|
----------------------------------------------------|
----------------------------------------------------|
----------------------------------------------------|
----------------------------------------------------|


--8-----------------------------6--6--3--6--6--6----|
----------------------------------------------------|
----------------------------------------------------|
----------------------------------------------------|
----------------------------------------------------|
----------------------------------------------------|


--8-----3L----3-----------------6--6--3--6--6--6----|
----------------------------------------------------|
----------------------------------------------------|
----------------------------------------------------|
----------------------------------------------------|
----------------------------------------------------|


--13-------10-------3-----------6--6--3--6--6--6----|
----------------------------------------------------|
----------------------------------------------------|
----------------------------------------------------|
----------------------------------------------------|
----------------------------------------------------|


--13-------10-------3--------6--6--6--10----8L------|
----------------------------------------------------|
----------------------------------------------------|
----------------------------------------------------|
----------------------------------------------------|
----------------------------------------------------|


--8L----------------------8-------------------------||
----------------------------------------------------||
----------------------------------------------------||
----------------------------------------------------||
----------------------------------------------------||
----------------------------------------------------||


 

Recommended for you:


POPULAR SONGS

RELATED SONGS