Now Reading
TAYLOR SWIFT – All Too Well (Taylor’s Version) Guitar Tabs

TAYLOR SWIFT – All Too Well (Taylor’s Version) Guitar Tabs

Enable Light Mode
#
A+
A-

This song is from the album Red (Taylor’s Version)(2021), released on 12 November 2021. The vocals are by Taylor Swift, the music is produced by Liz Rose , Taylor Swift, and the lyrics are written by Taylor Swift , Christopher Rowe.
This song is originally in the key of A Minor. You can change it to any key you want, using the Transpose option. The average tempo is 93 BPM. These chords are simple and easy to play on the guitar, ukulele or piano.

Click here for the chords and lyrics version

 
Original Key: A Minor
Time Signature: 4/4
Tempo: 93
Suggested Strumming: DU,DU,DU,DU
c h o r d  z o n e . o r g

 
Legend
L - tied note
x - dead note
h - hammer on/pull off
b - bend
s - slide
~ - vibrato
g - ghost note
> - accentuated note
t - trill
M - palm mute
. - staccato
P - popping (bass)
S - slapping (bass)
+ - tapping
W - wide vibrato
< - fade in
w - whammy bar
= - tremolo picking
v - brush up
^ - brush down
V - pick stroke up
n - pick stroke down


E |----------------------------|--0L----------0--0L-0-------|
B |----------------------------|-----------------------3L---|
G |-----------------------0----|----------------------------|
D |----------------------------|----------------------------|
A |----------------------------|----------------------------|
E |----------------------------|----------------------------|

www.chordzone.org
 

-----------------0L-0-------|-----------------0L-0-------|
--3L----------3--------1L---|--1L----------1-------------|
----------------------------|-----------------------2L---|
----------------------------|----------------------------|
----------------------------|----------------------------|
----------------------------|----------------------------|


----------------------------|
-----1L-1--------------1----|
--2-------------------------|
----------------------------|
----------------------------|
----------------------------|


----------------------------------------------------|
--1--------1--------1L----1-------------------------|
--------------------------------2L-2--0L-------0----|
----------------------------------------------------|
----------------------------------------------------|
----------------------------------------------------|


----------------------------|
-----3--3--3L-3-------------|
----------------------------|
----------------------------|
----------------------------|
----------------------------|


--0--0--0-----0-------------------------------------|
--------------------3L----3-----1-----1-------------|
----------------------------------------------------|
--------------------------------------------3L------|
----------------------------------------------------|
----------------------------------------------------|


----------------------------|
-----------1L-1--1----------|
----------------------------|
--3--3L-3-------------------|
----------------------------|
----------------------------|


----------------------------------------------------|
--------1-----1-----1L----1-------------------------|
--------------------------------0L----0-----0--0----|
----------------------------------------------------|
----------------------------------------------------|
----------------------------------------------------|


-----------------0L-0L------|
--3--------3L-3-------------|
----------------------------|
----------------------------|
----------------------------|
----------------------------|


--0-------------------------------------------------|
--------3-----1-----1L----1-----------1--1----------|
----------------------------------------------------|
--------------------------------------------3L------|
----------------------------------------------------|
----------------------------------------------------|


----------------------------|----------------------------|
-----------1L-1L-1----------|-----------------------1----|
----------------------------|----------------------------|
--3--3L-3-------------------|----------------------------|
----------------------------|----------------------------|
----------------------------|----------------------------|


----------------------------------------------------|
--1--------1--------1L----1-------------------------|
--------------------------------2L-2--0L-------0----|
----------------------------------------------------|
----------------------------------------------------|
----------------------------------------------------|


----------------------------|
-----3--3--3L-3-------------|
----------------------------|
----------------------------|
----------------------------|
----------------------------|


--0--0--0-----0-------------------------------------|
--------------------3L----3-----1-----1-------------|
----------------------------------------------------|
--------------------------------------------3L------|
----------------------------------------------------|
----------------------------------------------------|


----------------------------|
-----------1L-1--1----------|
----------------------------|
--3--3L-3-------------------|
----------------------------|
----------------------------|


----------------------------------------------------|
--1--------1--------1--------1----------------------|
-----2-----------------2L-2-----------0L-0----------|
----------------------------------------------------|
----------------------------------------------------|
----------------------------------------------------|


--------------------------------0L----0L------------|
--3-----3--3-----1--3L----3-------------------------|
----------------------------------------------------|
----------------------------------------------------|
----------------------------------------------------|
----------------------------------------------------|


--0-------------------------------------------------|
--------3-----1-----1L----1-----------1--1----------|
----------------------------------------------------|
--------------------------------------------3L------|
----------------------------------------------------|
----------------------------------------------------|


----------------------------|
-----------1L-1L-1-----1----|
----------------------------|
--3--3L-3-------------------|
----------------------------|
----------------------------|


-----------3L-3-------------------------------------|
--1--1--------------3L----3-----1-----1-----1-------|
----------------------------------------------------|
----------------------------------------------------|
----------------------------------------------------|
----------------------------------------------------|


-----------3L-3-------------------------------------|
--1--1--------------3L----3-----1-----1-----1-------|
----------------------------------------------------|
----------------------------------------------------|
----------------------------------------------------|
----------------------------------------------------|


-----------3L-3-------------------------------------|
--1--1--------------3L----3-----1--1L-1-------------|
--------------------------------------------0L------|
----------------------------------------------------|
----------------------------------------------------|
----------------------------------------------------|


--------3L----3--1--1L----1-----0L----0-------------|----------|----------|
----------------------------------------------------|-----0----|--1-------|
--0-----------------------------------------2L------|--2-------|----------|
----------------------------------------------------|----------|----------|
----------------------------------------------------|----------|----------|
----------------------------------------------------|----------|----------|


--3-----3--3--------3L----3-------------------------|
--------------------------------1-----1-------------|
----------------------------------------------------|
----------------------------------------------------|
----------------------------------------------------|
----------------------------------------------------|


--3--3-----3--------3L----3-------------------------|
----------------------------------------------------|
----------------------------------------------------|
----------------------------------------------------|
----------------------------------------------------|
----------------------------------------------------|


--3--------3--------3L----3-----0-----0-----0-------|
----------------------------------------------------|
----------------------------------------------------|
----------------------------------------------------|
----------------------------------------------------|
----------------------------------------------------|


--0--------------------------------------------0L---|
-----3-----3L-3--1--1-----------1-----1--3----------|
----------------------------------------------------|
----------------------------------------------------|
----------------------------------------------------|
----------------------------------------------------|


--0--------0L-0--------0----|-----------0L-0-------------|-------|
-----1--3--------1--3-------|--3--3L-3--------0L-0--1L---|--1----|
----------------------------|----------------------------|-------|
----------------------------|----------------------------|-------|
----------------------------|----------------------------|-------|
----------------------------|----------------------------|-------|


----------------------------|--0L----------0--0L-0-------|
----------------------------|-----------------------3L---|
-----------------------0----|----------------------------|
----------------------------|----------------------------|
----------------------------|----------------------------|
----------------------------|----------------------------|


-----------------0L-0-------|-----------------0L-0-------|
--3L----------3--------1L---|--1L----------1-------------|
----------------------------|-----------------------2L---|
----------------------------|----------------------------|
----------------------------|----------------------------|
----------------------------|----------------------------|


----------------------------|
-----1L-1--------------1----|
--2-------------------------|
----------------------------|
----------------------------|
----------------------------|


----------------------------------------------------|
--1--------1--------1L----1-------------------------|
--------------------------------2L-2--0L-------0----|
----------------------------------------------------|
----------------------------------------------------|
----------------------------------------------------|


----------------------------|
-----3--3--3L-3-------------|
----------------------------|
----------------------------|
----------------------------|
----------------------------|


--0--0--0-----0-------------------------------------|
--------------------3L----3-----1-----1-------------|
----------------------------------------------------|
--------------------------------------------3L------|
----------------------------------------------------|
----------------------------------------------------|


----------------------------|
-----------1L-1--1----------|
----------------------------|
--3--3L-3-------------------|
----------------------------|
----------------------------|


----------------------------------------------------|
--------1-----1-----1L----1-------------------------|
--------------------------------0L----0-----0--0----|
----------------------------------------------------|
----------------------------------------------------|
----------------------------------------------------|


-----------------0L-0L------|
--3--------3L-3-------------|
----------------------------|
----------------------------|
----------------------------|
----------------------------|


--0-------------------------------------------------|
--------3-----1-----1L----1-----------1--1----------|
----------------------------------------------------|
--------------------------------------------3L------|
----------------------------------------------------|
----------------------------------------------------|


----------------------------|----------------------------|
-----------1L-1L-1----------|-----------------------1----|
----------------------------|----------------------------|
--3--3L-3-------------------|----------------------------|
----------------------------|----------------------------|
----------------------------|----------------------------|


----------------------------------------------------|
--1--------1--------1L----1-------------------------|
--------------------------------2L-2--0L-------0----|
----------------------------------------------------|
----------------------------------------------------|
----------------------------------------------------|


----------------------------|
-----3--3--3L-3-------------|
----------------------------|
----------------------------|
----------------------------|
----------------------------|


--0--0--0-----0-------------------------------------|
--------------------3L----3-----1-----1-------------|
----------------------------------------------------|
--------------------------------------------3L------|
----------------------------------------------------|
----------------------------------------------------|


----------------------------|
-----------1L-1--1----------|
----------------------------|
--3--3L-3-------------------|
----------------------------|
----------------------------|


----------------------------------------------------|
--1--------1--------1--------1----------------------|
-----2-----------------2L-2-----------0L-0----------|
----------------------------------------------------|
----------------------------------------------------|
----------------------------------------------------|


--------------------------------0L----0L------------|
--3-----3--3-----1--3L----3-------------------------|
----------------------------------------------------|
----------------------------------------------------|
----------------------------------------------------|
----------------------------------------------------|


--0-------------------------------------------------|
--------3-----1-----1L----1-----------1--1----------|
----------------------------------------------------|
--------------------------------------------3L------|
----------------------------------------------------|
----------------------------------------------------|


----------------------------|
-----------1L-1L-1-----1----|
----------------------------|
--3--3L-3-------------------|
----------------------------|
----------------------------|


-----------3L-3-------------------------------------|
--1--1--------------3L----3-----1-----1-----1-------|
----------------------------------------------------|
----------------------------------------------------|
----------------------------------------------------|
----------------------------------------------------|


-----------3L-3-------------------------------------|
--1--1--------------3L----3-----1-----1-----1-------|
----------------------------------------------------|
----------------------------------------------------|
----------------------------------------------------|
----------------------------------------------------|


-----------3L-3-------------------------------------|
--1--1--------------3L----3-----1--1L-1-------------|
--------------------------------------------0L------|
----------------------------------------------------|
----------------------------------------------------|
----------------------------------------------------|


--------3L----3--1--1L----1-----0L----0-------------|----------|----------|
----------------------------------------------------|-----0----|--1-------|
--0-----------------------------------------2L------|--2-------|----------|
----------------------------------------------------|----------|----------|
----------------------------------------------------|----------|----------|
----------------------------------------------------|----------|----------|


--3-----3--3--------3L----3-------------------------|
--------------------------------1-----1-------------|
----------------------------------------------------|
----------------------------------------------------|
----------------------------------------------------|
----------------------------------------------------|


--3--3-----3--------3L----3-------------------------|
----------------------------------------------------|
----------------------------------------------------|
----------------------------------------------------|
----------------------------------------------------|
----------------------------------------------------|


--3--------3--------3L----3-----0-----0-----0-------|
----------------------------------------------------|
----------------------------------------------------|
----------------------------------------------------|
----------------------------------------------------|
----------------------------------------------------|

www.chordzone.org
 

--0--------------------------------------------0L---|
-----3-----3L-3--1--1-----------1-----1--3----------|
----------------------------------------------------|
----------------------------------------------------|
----------------------------------------------------|
----------------------------------------------------|


--0--------0L-0--------0----|-----------0L-0-------------|-------||
-----1--3--------1--3-------|--3--3L-3--------0L-0--1L---|--1----||
----------------------------|----------------------------|-------||
----------------------------|----------------------------|-------||
----------------------------|----------------------------|-------||
----------------------------|----------------------------|-------||


Recommended for you:


Click to rate this post!
[Total: 0 Average: 0]

To The Top Get The Guitar Tabs

See Also