Now Reading
TREFUEGO – 90 Mh Guitar Tabs

TREFUEGO – 90 Mh Guitar Tabs

Enable Light Mode
#
A+
A-

This song is from the album , released on . The vocals are by , the music is produced by , and the lyrics are written by .
This song is originally in the key of C Major. You can change it to any key you want, using the Transpose option. The average tempo is BPM. These chords are simple and easy to play on the guitar, ukulele or piano.

Click here for the chords and lyrics version

 
Original Key: C Major
Time Signature: 4/4
Tempo: 
Suggested Strumming: DU,DU,DU,DU
c h o r d  z o n e . o r g
 
Legend
L - tied note
x - dead note
h - hammer on/pull off
b - bend
s - slide
~ - vibrato
g - ghost note
> - accentuated note
t - trill
M - palm mute
. - staccato
P - popping (bass)
S - slapping (bass)
+ - tapping
W - wide vibrato
< - fade in
w - whammy bar
= - tremolo picking
v - brush up
^ - brush down
V - pick stroke up
n - pick stroke down


www.chordzone.org
 
E |-------|--3-----4-------------|--1----|--4-----3-------------|-------|
B |-------|-----------------4----|-------|-----------------4----|--1----|
G |-------|----------------------|-------|----------------------|-------|
D |-------|----------------------|-------|----------------------|-------|
A |-------|----------------------|-------|----------------------|-------|
E |-------|----------------------|-------|----------------------|-------|


----------------------|----------------------|-------|-------------|
--1-----2-------------|--1-------------------|-------|-------------|
-----------------1----|--------3--------1----|--0L---|--0----------|
----------------------|----------------------|-------|-------------|
----------------------|----------------------|-------|-------------|
----------------------|----------------------|-------|-------------|


--3-----4-------------|--1----|--4-----3-------------|-------|
-----------------4----|-------|-----------------4----|--1----|
----------------------|-------|----------------------|-------|
----------------------|-------|----------------------|-------|
----------------------|-------|----------------------|-------|
----------------------|-------|----------------------|-------|


----------------------|----------------------|-------|-------|
--1-----2-------------|--1-------------------|-------|-------|
-----------------1----|--------3--------1----|--0----|-------|
----------------------|----------------------|-------|-------|
----------------------|----------------------|-------|-------|
----------------------|----------------------|-------|-------|


--15----16-------11---|--13---|--16----15-------11---|--8----|
----------------------|-------|----------------------|-------|
----------------------|-------|----------------------|-------|
----------------------|-------|----------------------|-------|
----------------------|-------|----------------------|-------|
----------------------|-------|----------------------|-------|


--8-----9-------------|--8-----6--------4----|--3L---|--3----|
-----------------9----|----------------------|-------|-------|
----------------------|----------------------|-------|-------|
----------------------|----------------------|-------|-------|
----------------------|----------------------|-------|-------|
----------------------|----------------------|-------|-------|


--15----16-------11---|--13---|--16----15-------11---|--8----|
----------------------|-------|----------------------|-------|
----------------------|-------|----------------------|-------|
----------------------|-------|----------------------|-------|
----------------------|-------|----------------------|-------|
----------------------|-------|----------------------|-------|


--8-----9-------------|--8-----6--------4----|--3----|-------|
-----------------9----|----------------------|-------|-------|
----------------------|----------------------|-------|-------|
----------------------|----------------------|-------|-------|
----------------------|----------------------|-------|-------|
----------------------|----------------------|-------|-------|


--3-----4-------------|--1----|--4-----3-------------|-------|
-----------------4----|-------|-----------------4----|--1----|
----------------------|-------|----------------------|-------|
----------------------|-------|----------------------|-------|
----------------------|-------|----------------------|-------|
----------------------|-------|----------------------|-------|


----------------------|----------------------|-------|-------------|
--1-----2-------------|--1-------------------|-------|-------------|
-----------------1----|--------3--------1----|--0L---|--0----------|
----------------------|----------------------|-------|-------------|
----------------------|----------------------|-------|-------------|
----------------------|----------------------|-------|-------------|


--3-----4-------------|--1----|--4-----3-------------|-------|
-----------------4----|-------|-----------------4----|--1----|
----------------------|-------|----------------------|-------|
----------------------|-------|----------------------|-------|
----------------------|-------|----------------------|-------|
----------------------|-------|----------------------|-------|


----------------------|----------------------|-------|-------|
--1-----2-------------|--1-------------------|-------|-------|
-----------------1----|--------3--------1----|--0----|-------|
----------------------|----------------------|-------|-------|
----------------------|----------------------|-------|-------|
----------------------|----------------------|-------|-------|


--15----16-------11---|--13---|--16----15-------11---|--8----|
----------------------|-------|----------------------|-------|
----------------------|-------|----------------------|-------|
----------------------|-------|----------------------|-------|
----------------------|-------|----------------------|-------|
----------------------|-------|----------------------|-------|


--8-----9-------------|--8-----6--------4----|--3L---|--3----|
-----------------9----|----------------------|-------|-------|
----------------------|----------------------|-------|-------|
----------------------|----------------------|-------|-------|
----------------------|----------------------|-------|-------|
----------------------|----------------------|-------|-------|


--15----16-------11---|--13---|--16----15-------11---|--8----|
----------------------|-------|----------------------|-------|
----------------------|-------|----------------------|-------|
----------------------|-------|----------------------|-------|
----------------------|-------|----------------------|-------|
----------------------|-------|----------------------|-------|


www.chordzone.org
 
--8-----9-------------|--8-----6--------4----|--3----||
-----------------9----|----------------------|-------||
----------------------|----------------------|-------||
----------------------|----------------------|-------||
----------------------|----------------------|-------||
----------------------|----------------------|-------||


Recommended for you:


Click to rate this post!
[Total: 0 Average: 0]

To The Top Get The Guitar Tabs

See Also