Now Reading
JUBIN NAUTIYAL feat. PAYAL DEV – Dil Chahte Ho Guitar Tabs

JUBIN NAUTIYAL feat. PAYAL DEV – Dil Chahte Ho Guitar Tabs

Enable Light Mode
#
A+
A-

This single was released on 28 August 2020. It is originally in the key of G Major. The average tempo is 80 BPM. These tabs are simple and easy to play on the guitar.
Vocals: Jubin Nautiyal , Payal Dev ,
Producer(s): Payal Dev,
Writer(s): A M Turaz,

Click here for the chords and lyrics version

 
Original Key: G Major
Time Signature: 4/4
Tempo: 80
Suggested Strumming: DU,DU,DU,DU
c h o r d  z o n e . o r g
 
E ----------------------------------------------------|
B --------0--------1-----3--3-----------3-----3-------|
G ----------------------------------------------------|
D ----------------------------------------------------|
A ----------------------------------------------------|
E ----------------------------------------------------|


----------------------------------------------------|
--------1--3-----1-----0--------------0-------------|
--------------------------2-------------------------|
----------------------------------------------------|
----------------------------------------------------|
----------------------------------------------------|


----------------------------------------------------|
--------0--------1-----3--3-----------3-----3-------|
----------------------------------------------------|
----------------------------------------------------|
----------------------------------------------------|
----------------------------------------------------|


----------------------------------------------------|
--------1--3-----1-----0--------------0-------------|
--------------------------2-------------------------|
----------------------------------------------------|
----------------------------------------------------|
----------------------------------------------------|


----------------------------------------------------|
--------0--------1-----3--3-----------3-----3-------|
----------------------------------------------------|
----------------------------------------------------|
----------------------------------------------------|
----------------------------------------------------|

 www.chordzone.org
----------------------------------------------------|
--------1--3-----1-----0--------------0-------------|
--------------------------2-------------------------|
----------------------------------------------------|
----------------------------------------------------|
----------------------------------------------------|


-----------------------0----------------------------|
--------0--------1--------3-----------3-----3-------|
----------------------------------------------------|
----------------------------------------------------|
----------------------------------------------------|
----------------------------------------------------|


----------------------------------------------------|
--------1--3-----1-----0--------------0-------------|
--------------------------2-------------------------|
----------------------------------------------------|
----------------------------------------------------|
----------------------------------------------------|


-----------------3-----2--0-----------0L------------|
--------0--0----------------------------------------|
----------------------------------------------------|
----------------------------------------------------|
----------------------------------------------------|
----------------------------------------------------|


--0--------0----------------------------------------|
--------3--------1-----1--3-----------3-------------|
----------------------------------------------------|
----------------------------------------------------|
----------------------------------------------------|
----------------------------------------------------|


--------3--2-----5-----2--0-----------0-------------|
----------------------------------------------------|
----------------------------------------------------|
----------------------------------------------------|
----------------------------------------------------|
----------------------------------------------------|


 www.chordzone.org
-----------0----------------------------------------|
--------3--------1--------3-------------------------|
-----------------------------------4--2-------------|
----------------------------------------------------|
----------------------------------------------------|
----------------------------------------------------|


----------------------------------------------------|
--------0--------0----------------------------------|
-----------2--------------0-----------0-------------|
--------------------------------4-------------------|
----------------------------------------------------|
----------------------------------------------------|


----------------------------------------------------|
----------------------------------------------------|
-----------2-----0----------------------------------|
--------4--------------4--2-----0-----2-------------|
----------------------------------------------------|
----------------------------------------------------|


----------------------------------------------------|
--------------------------------------1-----1-------|
-----------------------0----------------------------|
-----------2-----2--------2-------------------------|
----------------------------------------------------|
----------------------------------------------------|


----------------------------------------------------|
----------------------------------------------------|
-----------------0----------------------------------|
--2--------------------2--0-----------0-------------|
----------------------------------------------------|
----------------------------------------------------|


----------------------------------------------------|
--------0--------0-----1----------------------------|
-----------2--------------0-----------0-------------|
--------------------------------4-------------------|
----------------------------------------------------|
----------------------------------------------------|


----------------------------------------------------|
----------------------------------------------------|
-----------2-----0----------------------------------|
--------4--------------4--2-----0-----2-------------|
----------------------------------------------------|
----------------------------------------------------|


----------------------------------------------------|
----------------------------------------------------|
-----------------------0----------------------------|
-----------2-----2--------2-------------------------|
--------------------------------------3-----3-------|
----------------------------------------------------|


----------------------------------------------------|
----------------------------------------------------|
-----------------0----------------------------------|
--2--------------------2--0-----------0-------------|
----------------------------------------------------|
----------------------------------------------------|


----------------------------------------------------|
--------0--------1-----3--3-----------3-----3-------|
----------------------------------------------------|
----------------------------------------------------|
----------------------------------------------------|
----------------------------------------------------|


----------------------------------------------------|
--------1--3-----1-----0--------------0-------------|
--------------------------2-------------------------|
----------------------------------------------------|
----------------------------------------------------|
----------------------------------------------------|


-----------------------0----------------------------|
--------0--------1--------3-----------3-----3-------|
----------------------------------------------------|
----------------------------------------------------|
----------------------------------------------------|
----------------------------------------------------|


----------------------------------------------------|----------||
--------1--3-----1-----0--------0-------------------|--0-------||
--------------------------0-----------2-------------|----------||
----------------------------------------------------|----------||
----------------------------------------------------|----------||
----------------------------------------------------|----------||


Recommended for you:


Click to rate this post!
[Total: 0 Average: 0]

To The Top Get The Guitar Tabs

See Also