skip to content

BILLIE EILISH – Your Power Guitar Tabs

#
A+
A-

SPONSOR AD
This song is from the album Happier Than Ever(2021), released on 29 April 2021. The vocals are by Billie Eilish, the music is produced by FINNEAS , Billie Eilish, and the lyrics are written by FINNEAS.
This song is originally in the key of A Minor. You can change it to any key you want, using the Transpose option. The average tempo is 65 BPM. These chords are simple and easy to play on the guitar, ukulele or piano.
Vocals: Billie Eilish ,
Producer: FINNEAS,
Writer: FINNEAS , Billie Eilish,

Click here for the chords and lyrics versionRequested By Sujith

 
Original Key: A Minor
Time Signature: 4/4
Tempo: 65
Suggested Strumming: DU,DU,DU,DU
c h o r d  z o n e . o r g

Legend
L - tied note
x - dead note
h - hammer on/pull off
b - bend
s - slide
~ - vibrato
g - ghost note
> - accentuated note
t - trill
M - palm mute
. - staccato
P - popping (bass)
S - slapping (bass)
+ - tapping
W - wide vibrato
< - fade in
w - whammy bar
= - tremolo picking
v - brush up
^ - brush down
V - pick stroke up
n - pick stroke down


E |-------|-------|-----------------------8L---|--8--7L-7--0L-0-----3--0L---|
B |-------|-------|----------------------------|----------------------------|
G |-------|-------|----------------------------|----------------------------|
D |-------|-------|----------------------------|----------------------------|
A |-------|-------|----------------------------|----------------------------|
E |-------|-------|----------------------------|----------------------------|


--0-----------------5-------|-------|-----------------------8L---|
-----------------------0L---|--0----|----------------------------|
----------------------------|-------|----------------------------|
----------------------------|-------|----------------------------|
----------------------------|-------|----------------------------|
----------------------------|-------|----------------------------|


--8--7L-7--0L-0-----1--0L---|--0-------------------------|
----------------------------|-----------------------3L---|
----------------------------|----------------------------|
----------------------------|----------------------------|
----------------------------|----------------------------|
----------------------------|----------------------------|


-----------------0L-0-------|-----------------------8L---|
--3-----------3-------------|----------------------------|
----------------------------|--0--2L-2L----2-------------|
----------------------------|----------------------------|
----------------------------|----------------------------|
----------------------------|----------------------------|


--8--7L-7--0L-0-----3--0L---|--0-----------------5-------|-------|-------|
----------------------------|-----------------------0L---|--0----|-------|
----------------------------|----------------------------|-------|-------|
----------------------------|----------------------------|-------|-------|
----------------------------|----------------------------|-------|-------|
----------------------------|----------------------------|-------|-------|


--0-----0-----0-----0-------------------------------|
--------------------------------3-----------3L------|
----------------------------------------------------|
----------------------------------------------------|
----------------------------------------------------|
----------------------------------------------------|


----------------------------|----------------|-----------------------8L---|
--3-----------------1--0L---|--0-------------|----------------------------|
----------------------------|----------------|--0--2L-2L----2-------------|
----------------------------|----------------|----------------------------|
----------------------------|----------------|----------------------------|
----------------------------|----------------|----------------------------|


www.chordzone.org
 
--8--7L-7--0L-0-----3--0L---|--0-----------------5-------|-------|
----------------------------|-----------------------0L---|--0----|
----------------------------|----------------------------|-------|
----------------------------|----------------------------|-------|
----------------------------|----------------------------|-------|
----------------------------|----------------------------|-------|


-----------------------8L---|--8--7L-7--0L-0-----1--0L---|
----------------------------|----------------------------|
----------------------------|----------------------------|
----------------------------|----------------------------|
----------------------------|----------------------------|
----------------------------|----------------------------|


--0-------------------------|----------------|-----------------------8L---|
--------------------3--3L---|--3-------------|----------------------------|
----------------------------|----------------|----------------------------|
----------------------------|----------------|----------------------------|
----------------------------|----------------|----------------------------|
----------------------------|----------------|----------------------------|


--8--7L-7--0L-0-----3--0L---|--0-----------------5-------|-------|-------|
----------------------------|-----------------------0L---|--0----|-------|
----------------------------|----------------------------|-------|-------|
----------------------------|----------------------------|-------|-------|
----------------------------|----------------------------|-------|-------|
----------------------------|----------------------------|-------|-------|


--0-----0-----0-----0-------------------------------|----------------|-------|
--------------------------------3-----------3L------|--3-------------|-------|
----------------------------------------------------|----------------|-------|
----------------------------------------------------|----------------|-------|
----------------------------------------------------|----------------|-------|
----------------------------------------------------|----------------|-------|


--0-------------|--------------0--1--0-------|--0-----------------0-------|
-----1----------|-----3--3--3----------------|--------1--------------0L---|
----------------|----------------------------|----------------------------|
----------------|----------------------------|----------------------------|
----------------|----------------------------|----------------------------|
----------------|----------------------------|----------------------------|


----------------------------|-----0----------------------|
--0-------------------------|--3-----1-------------------|
-----------------2--2-------|----------------------------|
----------------------------|----------------------------|
----------------------------|----------------------------|
----------------------------|----------------------------|


--------------0--1--0-------|--0-----------------0-------|
-----3--3--3----------------|--------1-----1--------0L---|
----------------------------|----------------------------|
----------------------------|----------------------------|
----------------------------|----------------------------|
----------------------------|----------------------------|


----------------------------|----------------------------|
--0-------------------------|--1--3--3--3----------------|
--------------------2--2----|--------------2-------------|
----------------------------|----------------------------|
----------------------------|----------------------------|
----------------------------|----------------------------|


----------------------------|--------------0-------------|
----------------------------|--1--3--3--1----------------|
-----------------2--2--2----|----------------------------|
----------------------------|----------------------------|
----------------------------|----------------------------|
----------------------------|----------------------------|


----------------------------|----------------------------|
----------------------------|--1--3--3--3----------------|
--------------------2--2----|--------------2-------------|
----------------------------|----------------------------|
----------------------------|----------------------------|
----------------------------|----------------------------|


----------------------------|--------------0-------------|
----------------------------|--1--3--3--1----------------|
-----------------2--2--2----|----------------------------|
----------------------------|----------------------------|
----------------------------|----------------------------|
----------------------------|----------------------------|


--------0-------------------|-------|--------3-----1--------0L---|
--------------3--------1----|-------|----------------------------|
----------------------------|-------|----------------------------|
----------------------------|-------|----------------------------|
----------------------------|-------|----------------------------|
----------------------------|-------|----------------------------|


--0-------------|-----------------0----------|--------------1-----0L------|
----------------|--------3--1--3-----3-------|-----------3----------------|
----------------|----------------------------|--2-------------------------|
----------------|----------------------------|----------------------------|
----------------|----------------------------|----------------------------|
----------------|----------------------------|----------------------------|


--0-----------------------------0-------------------|--0-------------|
--------------3-----3-----3-----------3-------------|----------------|
----------------------------------------------------|----------------|
----------------------------------------------------|----------------|
----------------------------------------------------|----------------|
----------------------------------------------------|----------------|


----------------|-----------------------8L---|--8--7L-7--0L-0-----3--0L---|
--------1-------|----------------------------|----------------------------|
-----------2----|----------------------------|----------------------------|
----------------|----------------------------|----------------------------|
----------------|----------------------------|----------------------------|
----------------|----------------------------|----------------------------|


--0-----------------5-------|-------|-----------------------8L---|
-----------------------0L---|--0----|----------------------------|
----------------------------|-------|----------------------------|
----------------------------|-------|----------------------------|
----------------------------|-------|----------------------------|
----------------------------|-------|----------------------------|


--8--7L-7--0L-0-----1--0L---|--0-------------------------|----------------|
----------------------------|--------------------3--3L---|--3-------------|
----------------------------|----------------------------|----------------|
----------------------------|----------------------------|----------------|
----------------------------|----------------------------|----------------|
----------------------------|----------------------------|----------------|


-----------------------8L---|--8--7L-7--0L-0-----3--0L---|
----------------------------|----------------------------|
----------------------------|----------------------------|
----------------------------|----------------------------|
----------------------------|----------------------------|
----------------------------|----------------------------|


--0-----------------5-------|
-----------------------0L---|
----------------------------|
----------------------------|
----------------------------|
----------------------------|


----------------------------------------------------|-------|
--0L----------------------------------0-------------|-------|
----------------------------------------------------|-------|
----------------------------------------------------|-------|
----------------------------------------------------|-------|
----------------------------------------------------|-------|

www.chordzone.org
 

--0-----0-----0-----0-------------------------------|-------|-------|
--------------------------------3-----------3L------|--3L---|--3L---|
----------------------------------------------------|-------|-------|
----------------------------------------------------|-------|-------|
----------------------------------------------------|-------|-------|
----------------------------------------------------|-------|-------|


----------------------------------------------------||
--3-------------------------------------------------||
----------------------------------------------------||
----------------------------------------------------||
----------------------------------------------------||
----------------------------------------------------||


Recommended for you:


POPULAR SONGS

RELATED SONGS