Now Reading
MAHESHINTE PRATHIKAARAM – Idukki Guitar Tabs

MAHESHINTE PRATHIKAARAM – Idukki Guitar Tabs

Enable Light Mode
#
A+
A-

This song is from the album Maheshinte Prathikaaram(2016), released on 29 January 2016 starring Fahadh Faasil, Anusree, Soubin Shahir. A simple song and a simple tune might have made this song really nice to listen to. This complication in the arrangement and the production made the song so boring to listen. The only thing that I enjoyed in this song was the female background vocals, they sounded nice. The rest of the song was not very nice to listen.
The vocals are by Bijibal, the music is produced by Rafeeq Ahammed, and the lyrics are written by Bijibal .
This song is originally in the key of D Minor. You can change it to any key you want, using the Transpose option. The average tempo is 160 BPM. These chords are simple and easy to play on the guitar, ukulele or piano.
Vocals: Bijibal ,
Producer: Bijibal ,
Writer: Rafeeq Ahammed ,

Click here for the chords and lyrics version

 
Original Key: D Minor
Time Signature: 3/4
Tempo: 160
Suggested Strumming: DU,DU,DU
c h o r d  z o n e . o r g

Legend
L - tied note
x - dead note
h - hammer on/pull off
b - bend
s - slide
~ - vibrato
g - ghost note
> - accentuated note
t - trill
M - palm mute
. - staccato
P - popping (bass)
S - slapping (bass)
+ - tapping
W - wide vibrato
< - fade in
w - whammy bar
= - tremolo picking
v - brush up
^ - brush down
V - pick stroke up
n - pick stroke down


E |-------|----------------------|--0--1--0-------------|----------------------|
B |-------|--3--3--------3-------|--------------3-------|--3--3--------3-------|
G |-------|--------2-------------|----------------------|--------2-------------|
D |-------|----------------------|----------------------|----------------------|
A |-------|----------------------|----------------------|----------------------|
E |-------|----------------------|----------------------|----------------------|


--0--1--0-------------|--0--0----------------|-----0--1----|
--------------3-------|--------0-----1-------|--3----------|
----------------------|----------------------|-------------|
----------------------|----------------------|-------------|
----------------------|----------------------|-------------|
----------------------|----------------------|-------------|


--3--5-----0L-0-------|----------------------|----------------------|
----------------------|--------------0--0----|--0--3--1--0----------|
----------------------|----------------------|--------------2-------|
----------------------|----------------------|----------------------|
----------------------|----------------------|----------------------|
----------------------|----------------------|----------------------|


----------------------|----------------------|-------|----------------------|
-----1--0-------------|----------------------|-------|--3--3--------3-------|
--2--------2--0L-0----|----------------------|-------|--------2-------------|
----------------------|--3--2--3--2--0L-0----|-------|----------------------|
----------------------|----------------------|-------|----------------------|
----------------------|----------------------|-------|----------------------|


--0--1--0-------------|----------------------|--0--1--0-------------|
--------------3-------|--3--3--------3-------|--------------3-------|
----------------------|--------2-------------|----------------------|
----------------------|----------------------|----------------------|
----------------------|----------------------|----------------------|
----------------------|----------------------|----------------------|


--0--0----------------|-----0--1----|--3--5-----0L-0-------|
--------0-----1-------|--3----------|----------------------|
----------------------|-------------|----------------------|
----------------------|-------------|----------------------|
----------------------|-------------|----------------------|
----------------------|-------------|----------------------|


----------------------|----------------------|----------------------|
--------------0--0----|--0--3--1--0----------|-----1--0-------------|
----------------------|--------------2-------|--2--------2--0L-0----|
----------------------|----------------------|----------------------|
----------------------|----------------------|----------------------|
----------------------|----------------------|----------------------|


----------------------|-------|--------5-----5-------|--1-----3--------5----|
----------------------|-------|--3--3----------------|----------------------|
----------------------|-------|----------------------|----------------------|
--3--2--3--2--0L-0----|-------|----------------------|----------------------|
----------------------|-------|----------------------|----------------------|
----------------------|-------|----------------------|----------------------|


--3-----5--3--1-------|--0----------|----------------------|
----------------------|-------------|--0--0--1-----3-------|
----------------------|-------------|----------------------|
----------------------|-------------|----------------------|
----------------------|-------------|----------------------|
----------------------|-------------|----------------------|


-----------------0----|--0-----1--0----------|----------------------|
--0-----1-------------|--------------3-------|--3--------3--3-------|
----------------------|----------------------|----------------------|
----------------------|----------------------|----------------------|
----------------------|----------------------|----------------------|
----------------------|----------------------|----------------------|


----------------------|-----------------0----|--0-----1--0----------|
--0--0--1-----3-------|--0-----1-------------|--------------3-------|
----------------------|----------------------|----------------------|
----------------------|----------------------|----------------------|
----------------------|----------------------|----------------------|
----------------------|----------------------|----------------------|


-------------|----------------------|--0--1--0-------------|
--3----------|--3--3--------3-------|--------------3-------|
-------------|--------2-------------|----------------------|
-------------|----------------------|----------------------|
-------------|----------------------|----------------------|
-------------|----------------------|----------------------|


----------------------|--0--1--0-------------|--0--0----------------|
--3--3--------3-------|--------------3-------|--------0-----1-------|
--------2-------------|----------------------|----------------------|
----------------------|----------------------|----------------------|
----------------------|----------------------|----------------------|
----------------------|----------------------|----------------------|


-----0--1----|--3--5-----0L-0-------|----------------------|
--3----------|----------------------|--------------0--0----|
-------------|----------------------|----------------------|
-------------|----------------------|----------------------|
-------------|----------------------|----------------------|
-------------|----------------------|----------------------|


----------------------|----------------------|----------------------|-------|
--0--3--1--0----------|-----1--0-------------|----------------------|-------|
--------------2-------|--2--------2--0L-0----|----------------------|-------|
----------------------|----------------------|--3--2--3--2--0L-0----|-------|
----------------------|----------------------|----------------------|-------|
----------------------|----------------------|----------------------|-------|


----------------------|--0--1--0-------------|----------------------|
--3--3--------3-------|--------------3-------|--3--3--------3-------|
--------2-------------|----------------------|--------2-------------|
----------------------|----------------------|----------------------|
----------------------|----------------------|----------------------|
----------------------|----------------------|----------------------|


--0--1--0-------------|--0--0----------------|-----0--1----|
--------------3-------|--------0-----1-------|--3----------|
----------------------|----------------------|-------------|
----------------------|----------------------|-------------|
----------------------|----------------------|-------------|
----------------------|----------------------|-------------|


--3--5-----0L-0-------|----------------------|----------------------|
----------------------|--------------0--0----|--0--3--1--0----------|
----------------------|----------------------|--------------2-------|
----------------------|----------------------|----------------------|
----------------------|----------------------|----------------------|
----------------------|----------------------|----------------------|


----------------------|----------------------|-------|
-----1--0-------------|----------------------|-------|
--2--------2--0L-0----|----------------------|-------|
----------------------|--3--2--3--2--0L-0----|-------|
----------------------|----------------------|-------|
----------------------|----------------------|-------|


----------------------------------------|
-----------3-----3-----------------3L---|
-----------------------2L-2-------------|
----------------------------------------|
----------------------------------------|
----------------------------------------|


-----------0-----1-----0L-0-------------|
--3--------------------------------3L---|
----------------------------------------|
----------------------------------------|
----------------------------------------|
----------------------------------------|


----------------------------------------|
--3--------3-----3-----------------3L---|
-----------------------2L-2-------------|
----------------------------------------|
----------------------------------------|
----------------------------------------|


-----------0-----1-----0L-0-------------|
--3--------------------------------3L---|
----------------------------------------|
----------------------------------------|
----------------------------------------|
----------------------------------------|


-----------0-----0----------------------|
--3--------------------0L-0--------1L---|
----------------------------------------|
----------------------------------------|
----------------------------------------|
----------------------------------------|

www.chordzone.org
 

-----------------------0L-0--------1----|
--1--------3L-3-------------------------|
----------------------------------------|
----------------------------------------|
----------------------------------------|
----------------------------------------|


-----------3-----5-----------0L---------|
----------------------------------------|
----------------------------------------|
----------------------------------------|
----------------------------------------|
----------------------------------------|


--0-------------------------------------|
-----------------------------------0----|
----------------------------------------|
----------------------------------------|
----------------------------------------|
----------------------------------------|


----------------------------------------|
-----0-----0-----3-----1-----0----------|
-----------------------------------2L---|
----------------------------------------|
----------------------------------------|
----------------------------------------|


----------------------------------------|
-----------------1-----0----------------|
--2--------2-----------------2-----0L---|
----------------------------------------|
----------------------------------------|
----------------------------------------|


----------------------------------------|-------|
----------------------------------------|-------|
--0-------------------------------------|-------|
-----------3-----2-----3-----2-----0----|-------|
----------------------------------------|-------|
----------------------------------------|-------|


----------------------------------------|
-----------3-----3-----------------3L---|
-----------------------2L-2-------------|
----------------------------------------|
----------------------------------------|
----------------------------------------|


-----------0-----1-----0L-0-------------|
--3--------------------------------3L---|
----------------------------------------|
----------------------------------------|
----------------------------------------|
----------------------------------------|


----------------------------------------|
--3--------3-----3-----------------3L---|
-----------------------2L-2-------------|
----------------------------------------|
----------------------------------------|
----------------------------------------|


-----------0-----1-----0L-0-------------|
--3--------------------------------3L---|
----------------------------------------|
----------------------------------------|
----------------------------------------|
----------------------------------------|


-----------0-----0----------------------|
--3--------------------0L-0--------1L---|
----------------------------------------|
----------------------------------------|
----------------------------------------|
----------------------------------------|


-----------------------0L-0--------1----|
--1--------3L-3-------------------------|
----------------------------------------|
----------------------------------------|
----------------------------------------|
----------------------------------------|


-----------3-----5-----------0L---------|
----------------------------------------|
----------------------------------------|
----------------------------------------|
----------------------------------------|
----------------------------------------|


--0-------------------------------------|
-----------------------------------0----|
----------------------------------------|
----------------------------------------|
----------------------------------------|
----------------------------------------|


----------------------------------------|
-----0-----0-----3-----1-----0----------|
-----------------------------------2L---|
----------------------------------------|
----------------------------------------|
----------------------------------------|


----------------------------------------|
-----------------1-----0----------------|
--2--------2-----------------2-----0L---|
----------------------------------------|
----------------------------------------|
----------------------------------------|


----------------------------------------|-------|
----------------------------------------|-------|
--0-------------------------------------|-------|
-----------3-----2-----3-----2-----0----|-------|
----------------------------------------|-------|
----------------------------------------|-------|


-----------------------5L-5--------5L---|
-----------3-----3----------------------|
----------------------------------------|
----------------------------------------|
----------------------------------------|
----------------------------------------|


--5--------1L-1--------3L-3-------------|
----------------------------------------|
----------------------------------------|
----------------------------------------|
----------------------------------------|
----------------------------------------|


-----5-----3L-3--------5-----3-----1L---|
----------------------------------------|
----------------------------------------|
----------------------------------------|
----------------------------------------|
----------------------------------------|


--1--------0L-0-------------------------|
----------------------------------------|
----------------------------------------|
----------------------------------------|
----------------------------------------|
----------------------------------------|


----------------------------------------|
-----------0-----0-----1L-1--------3----|
----------------------------------------|
----------------------------------------|
----------------------------------------|
----------------------------------------|


----------------------------------------|
--3--------0L-0--------1L-1L-------1----|
----------------------------------------|
----------------------------------------|
----------------------------------------|
----------------------------------------|


-----0-----0L-0--------1-----0----------|
-----------------------------------3L---|
----------------------------------------|
----------------------------------------|
----------------------------------------|
----------------------------------------|


----------------------------------------|
--3--------3L-3--------------3-----3----|
----------------------------------------|
----------------------------------------|
----------------------------------------|
----------------------------------------|


----------------------------------------|
-----------0-----0-----1L-1--------3L---|
----------------------------------------|
----------------------------------------|
----------------------------------------|
----------------------------------------|


----------------------------------------|
--3--------0L-0--------1L-1L-------1----|
----------------------------------------|
----------------------------------------|
----------------------------------------|
----------------------------------------|


-----0-----0L-0--------1-----0----------|
-----------------------------------3L---|
----------------------------------------|
----------------------------------------|
----------------------------------------|
----------------------------------------|


----------------------------------------|
--3--------3L-3-------------------------|
----------------------------------------|
----------------------------------------|
----------------------------------------|
----------------------------------------|


----------------------------------------|
-----------3-----3-----------------3L---|
-----------------------2L-2-------------|
----------------------------------------|
----------------------------------------|
----------------------------------------|


-----------0-----1-----0L-0-------------|
--3--------------------------------3L---|
----------------------------------------|
----------------------------------------|
----------------------------------------|
----------------------------------------|


----------------------------------------|
--3--------3-----3-----------------3L---|
-----------------------2L-2-------------|
----------------------------------------|
----------------------------------------|
----------------------------------------|


-----------0-----1-----0L-0-------------|
--3--------------------------------3L---|
----------------------------------------|
----------------------------------------|
----------------------------------------|
----------------------------------------|


-----------0-----0----------------------|
--3--------------------0L-0--------1L---|
----------------------------------------|
----------------------------------------|
----------------------------------------|
----------------------------------------|


-----------------------0L-0--------1----|
--1--------3L-3-------------------------|
----------------------------------------|
----------------------------------------|
----------------------------------------|
----------------------------------------|


-----------3-----5-----------0L---------|
----------------------------------------|
----------------------------------------|
----------------------------------------|
----------------------------------------|
----------------------------------------|


--0-------------------------------------|
-----------------------------------0----|
----------------------------------------|
----------------------------------------|
----------------------------------------|
----------------------------------------|


----------------------------------------|
-----0-----0-----3-----1-----0----------|
-----------------------------------2L---|
----------------------------------------|
----------------------------------------|
----------------------------------------|


----------------------------------------|
-----------------1-----0----------------|
--2--------2-----------------2-----0L---|
----------------------------------------|
----------------------------------------|
----------------------------------------|


----------------------------------------|-------|
----------------------------------------|-------|
--0-------------------------------------|-------|
-----------3-----2-----3-----2-----0----|-------|
----------------------------------------|-------|
----------------------------------------|-------|


----------------------------------------|
-----------3-----3-----------------3L---|
-----------------------2L-2-------------|
----------------------------------------|
----------------------------------------|
----------------------------------------|


-----------0-----1-----0L-0-------------|
--3--------------------------------3L---|
----------------------------------------|
----------------------------------------|
----------------------------------------|
----------------------------------------|


----------------------------------------|
--3--------3-----3-----------------3L---|
-----------------------2L-2-------------|
----------------------------------------|
----------------------------------------|
----------------------------------------|


-----------0-----1-----0L-0-------------|
--3--------------------------------3L---|
----------------------------------------|
----------------------------------------|
----------------------------------------|
----------------------------------------|


-----------0-----0----------------------|
--3--------------------0L-0--------1L---|
----------------------------------------|
----------------------------------------|
----------------------------------------|
----------------------------------------|


-----------------------0L-0--------1----|
--1L-------3L13-------------------------|
----------------------------------------|
----------------------------------------|
----------------------------------------|
----------------------------------------|


-----------3-----5-----------0L---------|
----------------------------------------|
----------------------------------------|
----------------------------------------|
----------------------------------------|
----------------------------------------|


--0-------------------------------------|
-----------------------------------0----|
----------------------------------------|
----------------------------------------|
----------------------------------------|
----------------------------------------|


----------------------------------------|
-----0-----0-----3-----1-----0----------|
-----------------------------------2L---|
----------------------------------------|
----------------------------------------|
----------------------------------------|


www.chordzone.org
 
----------------------------------------|
-----------------1-----0----------------|
--2--------2-----------------2-----0L---|
----------------------------------------|
----------------------------------------|
----------------------------------------|


----------------------------------------|-------||
----------------------------------------|-------||
--0-------------------------------------|-------||
-----------3-----2-----3-----2-----0----|-------||
----------------------------------------|-------||
----------------------------------------|-------||



 

Recommended for you:


Click to rate this post!
[Total: 0 Average: 0]

To The Top Get The Guitar Tabs

See Also