Now Reading
TATE MCRAE feat LIL MOSEY – Vicious Guitar Tabs

TATE MCRAE feat LIL MOSEY – Vicious Guitar Tabs

Enable Light Mode
#
A+
A-

This single was released on 19 June 2020. It is originally in the key of F Minor. You can change it to any key you want, using the Transpose option. The average tempo is 80 BPM. These chords are simple and easy to play on the guitar or piano.

Click here for the chords and lyrics version

 
Original Key: F Minor
Time Signature: 4/4
Tempo: 80
Suggested Strumming: DU,DU,DU,DU
c h o r d  z o n e . o r g
 

E |-----------------------------------------------1----|
B |-----------------------------------------1--4-------|
G |----------------------------------------------------|
D |----------------------------------------------------|
A |----------------------------------------------------|
E |----------------------------------------------------|


--4-----3--1--3--------------------------------1----|
-----------------------------------------1--4-------|
----------------------------------------------------|
----------------------------------------------------|
----------------------------------------------------|
----------------------------------------------------|


--4-----3--1--3--------------------------------1----|
-----------------------1--2--1--------------4-------|
--------------------------------3L----3-------------|
----------------------------------------------------|
----------------------------------------------------|
----------------------------------------------------|
www.chordzone.org

--4-----3--1-----3L-------3-------------------------|
--------------------------------------------1--1----|
----------------------------------------------------|
----------------------------------------------------|
----------------------------------------------------|
----------------------------------------------------|


--------------------1--1--0--0--3-----3-----1--3----|
--------4-----1-------------------------------------|
--3-------------------------------------------------|
----------------------------------------------------|
----------------------------------------------------|
----------------------------------------------------|


--4-----3--1--3--------------------------------1----|
-----------------------------------------1--4-------|
----------------------------------------------------|
----------------------------------------------------|
----------------------------------------------------|
----------------------------------------------------|


--4-----3--1--3--------------------------------1----|
-----------------------1--2--1--------------4-------|
--------------------------------3L----3-------------|
----------------------------------------------------|
----------------------------------------------------|
----------------------------------------------------|


--4-----3--1--3-------------------------------------|
--------------------------------------------1--1----|
----------------------------------------------------|
----------------------------------------------------|
----------------------------------------------------|
----------------------------------------------------|


--------------------1--1--0--0--3-----3-------------|
--------4-----1-------------------------------------|
--3-------------------------------------------------|
----------------------------------------------------|
----------------------------------------------------|
----------------------------------------------------|

 
 www.chordzone.org
--1--8--------6-------------|
-----------4----------------|
----------------------------|
----------------------------|
----------------------------|
----------------------------|


--------------8-----------6--------4--1-----1-------|
--------6-----------4-------------------------------|
----------------------------------------------------|
----------------------------------------------------|
----------------------------------------------------|
----------------------------------------------------|


--------8L----8-----------6-----------------8--6----|
--4-----------------4-------------------------------|
----------------------------------------------------|
----------------------------------------------------|
----------------------------------------------------|
----------------------------------------------------|


--8--6--8--6--8-----8--6--8-----6-----8-------------|
----------------------------------------------------|
----------------------------------------------------|
----------------------------------------------------|
----------------------------------------------------|
----------------------------------------------------|


----------------------------------------------------|
-----------2--1-----------------2-----1-------------|
--------5-------------------------------------------|
--------------------3-----3--3----------------------|
----------------------------------------------------|
----------------------------------------------------|


----------------------------------------------------|
--------2-----1-----------------2-----1-------------|
----------------------------------------------------|
--------------------3--3--3-------------------------|
----------------------------------------------------|
----------------------------------------------------|


--------1-----1-----------6-----4-------------------|
--------------------4--6--------------1--------1----|
--------------------------------------------3-------|
----------------------------------------------------|
----------------------------------------------------|
----------------------------------------------------|


----------------------------------------------------|
----------------------------------------------------|
--3--3--3--3--1--1--1--1--0--0--0--0--------1--0----|
----------------------------------------------------|
----------------------------------------------------|
----------------------------------------------------|


----------------------------------------------------|
--------1--1--1-----------------2-----1-------------|
----------------------------------------------------|
--------------------3L-3--3--3L-3-------------------|
----------------------------------------------------|
----------------------------------------------------|


----------------------------------------------------|
--------1--2--1-----------------2-----1-------------|
----------------------------------------------------|
--------------------3--3--3--3----------------------|
----------------------------------------------------|
----------------------------------------------------|


--------1-----1-----------6-----4-------------------|
--------------------4--6--------------1--------1----|
--------------------------------------------3-------|
----------------------------------------------------|
----------------------------------------------------|
----------------------------------------------------|


----------------------------------------------------|-------|----||
----------------------------------------------------|-------|----||
--3--3--3--3--1--1--1--1--0--0--0--0--------1--0----|-------|----||
----------------------------------------------------|-------|----||
----------------------------------------------------|-------|----||
----------------------------------------------------|-------|----||


Recommended for you:


Click to rate this post!
[Total: 0 Average: 0]

To The Top Get The Guitar Tabs

See Also