Now Reading
MALIK – Aararaum Kaanathe Guitar Tabs

MALIK – Aararaum Kaanathe Guitar Tabs

Enable Light Mode
#
A+
A-

This single was released on 30 July 2021. The vocals are by Shahabaz Aman ,Shahabaz Aman ,Shahabaz Aman, the music is produced by Anwar Ali,Anwar Ali,Anwar Ali, and the lyrics are written by Sushin Shyam,Sushin Shyam,Sushin Shyam.
This song is originally in the key of A Minor. You can change it to any key you want, using the Transpose option. The average tempo is 108 BPM. These chords are simple and easy to play on the guitar, ukulele or piano.
Vocals: Shahabaz Aman ,
Producer: Sushin Shyam,
Writer: Anwar Ali,

Click here for the chords and lyrics version

 
Original Key: A Minor
Time Signature: 4/4
Tempo: 108
Suggested Strumming: DU,DU,DU,DU
c h o r d  z o n e . o r g
Legend
L - tied note
x - dead note
h - hammer on/pull off
b - bend
s - slide
~ - vibrato
g - ghost note
> - accentuated note
t - trill
M - palm mute
. - staccato
P - popping (bass)
S - slapping (bass)
+ - tapping
W - wide vibrato
< - fade in
w - whammy bar
= - tremolo picking
v - brush up
^ - brush down
V - pick stroke up
n - pick stroke down


E |-------|----------------|----------------------------|----------------|
B |-------|-----0--1--3----|--1--3--1-------------------|-----0--1--3----|
G |-------|----------------|--------------3-----2-------|----------------|
D |-------|----------------|----------------------------|----------------|
A |-------|----------------|----------------------------|----------------|
E |-------|----------------|----------------------------|----------------|


----------------------------|----------------|----------------|-----------1----|
--1--3--1-------------------|----------------|-----3-----3----|--3--2--3-------|
--------------3-----2-------|-----2--3--2----|--0-------------|----------------|
----------------------------|----------------|----------------|----------------|
----------------------------|----------------|----------------|----------------|
----------------------------|----------------|----------------|----------------|


--0----|----------------|----------------------------|----------------|
-------|-----0--1--3----|--1--3--1-------------------|-----0--1--3----|
-------|----------------|--------------3-----2-------|----------------|
-------|----------------|----------------------------|----------------|
-------|----------------|----------------------------|----------------|
-------|----------------|----------------------------|----------------|


----------------------------|----------------|----------------|-----------1----|
--1--3--1-------------------|----------------|-----3-----3----|--3--2--3-------|
--------------3-----2-------|-----2--3--2----|--0-------------|----------------|
----------------------------|----------------|----------------|----------------|
----------------------------|----------------|----------------|----------------|
----------------------------|----------------|----------------|----------------|


--0----|-----------3----|--1-----0--1L---|--1--0----------|-----0----------|
-------|----------------|----------------|--------3--1----|--3-------------|
-------|-----2--3-------|----------------|----------------|----------------|
-------|----------------|----------------|----------------|----------------|
-------|----------------|----------------|----------------|----------------|
-------|----------------|----------------|----------------|----------------|


-----------1----|--1-----0-------|----------------|----------------|
----------------|-----------3L---|--3--2--0-------|--0--2----------|
-----2--3-------|----------------|-----------2----|----------------|
----------------|----------------|----------------|----------------|
----------------|----------------|----------------|----------------|
----------------|----------------|----------------|----------------|


-----------3----|--1-----0--1L---|--1--0----------|-----0-----0----|
----------------|----------------|--------3--1----|--3-------------|
-----2--3-------|----------------|----------------|----------------|
----------------|----------------|----------------|----------------|
----------------|----------------|----------------|----------------|
----------------|----------------|----------------|----------------|


--0-------------|----------------|----------------|----------------|
-----3--1--0----|--1--3-----3L---|--3--1--0-------|----------------|
----------------|----------------|-----------2----|--1--2L---------|
----------------|----------------|----------------|----------------|
----------------|----------------|----------------|----------------|
----------------|----------------|----------------|----------------|


----------------|-------|----------------|----------------------------|
----------------|-------|-----0--1--3----|--1--3--1-------------------|
--2-------------|-------|----------------|--------------3-----2-------|
----------------|-------|----------------|----------------------------|
----------------|-------|----------------|----------------------------|
----------------|-------|----------------|----------------------------|


----------------|----------------------------|----------------|----------------|
-----0--1--3----|--1--3--1-------------------|----------------|-----3-----3----|
----------------|--------------3-----2-------|-----2--3--2----|--0-------------|
----------------|----------------------------|----------------|----------------|
----------------|----------------------------|----------------|----------------|
----------------|----------------------------|----------------|----------------|


-----------1----|--0----|----------------|----------------------------|
--3--2--3-------|-------|-----0--1--3----|--1--3--1-------------------|
----------------|-------|----------------|--------------3-----2-------|
----------------|-------|----------------|----------------------------|
----------------|-------|----------------|----------------------------|
----------------|-------|----------------|----------------------------|


----------------|----------------------------|----------------|----------------|
-----0--1--3----|--1--3--1-------------------|----------------|-----3-----3----|
----------------|--------------3-----2-------|-----2--3--2----|--0-------------|
----------------|----------------------------|----------------|----------------|
----------------|----------------------------|----------------|----------------|
----------------|----------------------------|----------------|----------------|


-----------1----|--0----|-----------3----|--1-----0--1L---|--1--0----------|
--3--2--3-------|-------|----------------|----------------|--------3--1----|
----------------|-------|-----2--3-------|----------------|----------------|
----------------|-------|----------------|----------------|----------------|
----------------|-------|----------------|----------------|----------------|
----------------|-------|----------------|----------------|----------------|

www.chordzone.org
 

-----0----------|-----------1----|--1-----0-------|----------------|
--3-------------|----------------|-----------3L---|--3--2--0-------|
----------------|-----2--3-------|----------------|-----------2----|
----------------|----------------|----------------|----------------|
----------------|----------------|----------------|----------------|
----------------|----------------|----------------|----------------|


----------------|-----------3----|--1-----0--1L---|--1--0----------|
--0--2----------|----------------|----------------|--------3--1----|
----------------|-----2--3-------|----------------|----------------|
----------------|----------------|----------------|----------------|
----------------|----------------|----------------|----------------|
----------------|----------------|----------------|----------------|


-----0-----0----|--0-------------|----------------|----------------|
--3-------------|-----3--1--0----|--1--3-----3L---|--3--1--0-------|
----------------|----------------|----------------|-----------2----|
----------------|----------------|----------------|----------------|
----------------|----------------|----------------|----------------|
----------------|----------------|----------------|----------------|


----------------|-----1--1--0----|--1-------------|----------------|
----------------|----------------|-----3----------|----------------|
--1--2L---------|--2-------------|----------------|-----2--3--2----|
----------------|----------------|----------------|----------------|
----------------|----------------|----------------|----------------|
----------------|----------------|----------------|----------------|


-----0L---------|--0-------|----------------|----------------|----------------|
----------------|----------|----------------|--3-------------|----------------|
--0-------------|----------|-----3--2--0----|--------3--2----|--3--2----------|
----------------|----------|----------------|----------------|----------------|
----------------|----------|----------------|----------------|----------------|
----------------|----------|----------------|----------------|----------------|


-----1--1--0----|--1-------------|----------------|-----0L---------|--0-------|
----------------|-----3----------|----------------|----------------|----------|
----------------|----------------|-----2--3--2----|--0-------------|----------|
----------------|----------------|----------------|----------------|----------|
----------------|----------------|----------------|----------------|----------|
----------------|----------------|----------------|----------------|----------|


----------------|----------------|----------------|-------|-------|
----------------|--3-------------|----------------|-------|-------|
-----3--2--0----|--------3--2----|--3--2L---------|--2----|-------|
----------------|----------------|----------------|-------|-------|
----------------|----------------|----------------|-------|-------|
----------------|----------------|----------------|-------|-------|


----------------|----------------------------|----------------|
-----0--1--3----|--1--3--1-------------------|-----0--1--3----|
----------------|--------------3-----2-------|----------------|
----------------|----------------------------|----------------|
----------------|----------------------------|----------------|
----------------|----------------------------|----------------|


----------------------------|----------------|----------------|-----------1----|
--1--3--1-------------------|----------------|-----3-----3----|--3--2--3-------|
--------------3-----2-------|-----2--3--2----|--0-------------|----------------|
----------------------------|----------------|----------------|----------------|
----------------------------|----------------|----------------|----------------|
----------------------------|----------------|----------------|----------------|


--0----|----------------|----------------------------|----------------|
-------|-----0--1--3----|--1--3--1-------------------|-----0--1--3----|
-------|----------------|--------------3-----2-------|----------------|
-------|----------------|----------------------------|----------------|
-------|----------------|----------------------------|----------------|
-------|----------------|----------------------------|----------------|


----------------------------|----------------|----------------|-----------1----|
--1--3--1-------------------|----------------|-----3-----3----|--3--2--3-------|
--------------3-----2-------|-----2--3--2----|--0-------------|----------------|
----------------------------|----------------|----------------|----------------|
----------------------------|----------------|----------------|----------------|
----------------------------|----------------|----------------|----------------|


--0----|-----------3----|--1-----0--1L---|--1--0----------|-----0----------|
-------|----------------|----------------|--------3--1----|--3-------------|
-------|-----2--3-------|----------------|----------------|----------------|
-------|----------------|----------------|----------------|----------------|
-------|----------------|----------------|----------------|----------------|
-------|----------------|----------------|----------------|----------------|


-----------1----|--1-----0-------|----------------|----------------|
----------------|-----------3L---|--3--2--0-------|--0--2----------|
-----2--3-------|----------------|-----------2----|----------------|
----------------|----------------|----------------|----------------|
----------------|----------------|----------------|----------------|
----------------|----------------|----------------|----------------|


-----------3----|--1-----0--1L---|--1--0----------|-----0-----0----|
----------------|----------------|--------3--1----|--3-------------|
-----2--3-------|----------------|----------------|----------------|
----------------|----------------|----------------|----------------|
----------------|----------------|----------------|----------------|
----------------|----------------|----------------|----------------|


--0-------------|----------------|----------------|----------------|
-----3--1--0----|--1--3-----3L---|--3--1--0-------|----------------|
----------------|----------------|-----------2----|--1--2L---------|
----------------|----------------|----------------|----------------|
----------------|----------------|----------------|----------------|
----------------|----------------|----------------|----------------|


----------------|-------|----------------|----------------------------|
----------------|-------|-----0--1--3----|--1--3--1-------------------|
--2-------------|-------|----------------|--------------3-----2-------|
----------------|-------|----------------|----------------------------|
----------------|-------|----------------|----------------------------|
----------------|-------|----------------|----------------------------|


----------------|----------------------------|----------------|----------------|
-----0--1--3----|--1--3--1-------------------|----------------|-----3-----3----|
----------------|--------------3-----2-------|-----2--3--2----|--0-------------|
----------------|----------------------------|----------------|----------------|
----------------|----------------------------|----------------|----------------|
----------------|----------------------------|----------------|----------------|


-----------1----|--0----|----------------|----------------------------|
--3--2--3-------|-------|-----0--1--3----|--1--3--1-------------------|
----------------|-------|----------------|--------------3-----2-------|
----------------|-------|----------------|----------------------------|
----------------|-------|----------------|----------------------------|
----------------|-------|----------------|----------------------------|


----------------|----------------------------|----------------|----------------|
-----0--1--3----|--1--3--1-------------------|----------------|-----3-----3----|
----------------|--------------3-----2-------|-----2--3--2----|--0-------------|
----------------|----------------------------|----------------|----------------|
----------------|----------------------------|----------------|----------------|
----------------|----------------------------|----------------|----------------|


-----------1----|--0----|-----------3----|--1-----0--1L---|--1--0----------|
--3--2--3-------|-------|----------------|----------------|--------3--1----|
----------------|-------|-----2--3-------|----------------|----------------|
----------------|-------|----------------|----------------|----------------|
----------------|-------|----------------|----------------|----------------|
----------------|-------|----------------|----------------|----------------|


-----0----------|-----------1----|--1-----0-------|----------------|
--3-------------|----------------|-----------3L---|--3--2--0-------|
----------------|-----2--3-------|----------------|-----------2----|
----------------|----------------|----------------|----------------|
----------------|----------------|----------------|----------------|
----------------|----------------|----------------|----------------|


----------------|-----------3----|--1-----0--1L---|--1--0----------|
--0--2----------|----------------|----------------|--------3--1----|
----------------|-----2--3-------|----------------|----------------|
----------------|----------------|----------------|----------------|
----------------|----------------|----------------|----------------|
----------------|----------------|----------------|----------------|


-----0-----0----|--0-------------|----------------|----------------|
--3-------------|-----3--1--0----|--1--3-----3L---|--3--1--0-------|
----------------|----------------|----------------|-----------2----|
----------------|----------------|----------------|----------------|
----------------|----------------|----------------|----------------|
----------------|----------------|----------------|----------------|


----------------|-----1--1--0----|--1-------------|----------------|
----------------|----------------|-----3----------|----------------|
--1--2L---------|--2-------------|----------------|-----2--3--2----|
----------------|----------------|----------------|----------------|
----------------|----------------|----------------|----------------|
----------------|----------------|----------------|----------------|


-----0L---------|--0-------|----------------|----------------|----------------|
----------------|----------|----------------|--3-------------|----------------|
--0-------------|----------|-----3--2--0----|--------3--2----|--3--2----------|
----------------|----------|----------------|----------------|----------------|
----------------|----------|----------------|----------------|----------------|
----------------|----------|----------------|----------------|----------------|


-----1--1--0----|--1-------------|----------------|-----0L---------|--0-------|
----------------|-----3----------|----------------|----------------|----------|
----------------|----------------|-----2--3--2----|--0-------------|----------|
----------------|----------------|----------------|----------------|----------|
----------------|----------------|----------------|----------------|----------|
----------------|----------------|----------------|----------------|----------|

www.chordzone.org
 

----------------|----------------------------|----------------|
----------------|--3-------------------------|----------------|
-----3--2--0----|--------------3-----2L-2----|--3--2L---------|
----------------|----------------------------|----------------|
----------------|----------------------------|----------------|
----------------|----------------------------|----------------|


----------------------------||
----------------------------||
--2L----------------2-------||
----------------------------||
----------------------------||
----------------------------||



Recommended for you:


Click to rate this post!
[Total: 0 Average: 0]

To The Top Get The Guitar Tabs

See Also