skip to content

MARAGATHA NAANAYAM – Nee Kavithaigala Guitar Tabs

#
A+
A-
SPONSOR AD

This song is from the movie Maragatha Naanayam(2017), released on 19 January 2017 starring Aadhi, Nikki Galrani. The vocals are by Pradeep Kumar, the music is produced by Gkb, and the lyrics are written by Dhibu Ninan Thomas
This song is originally in the key of G Major. You can change it to any key you want, using the Transpose option. The average tempo is 130 BPM. These chords are simple and easy to play on the guitar, ukulele or piano.
Vocals: Pradeep Kumar,
Producer: Dhibu Ninan Thomas,
Writer: Gkb,

Click here for the chords and lyrics version

 
Original Key: G Major
Time Signature: 3/4
Tempo: 130
Suggested Strumming: DU,DU,DU
c h o r d  z o n e . o r g

Legend
L - tied note
x - dead note
h - hammer on/pull off
b - bend
s - slide
~ - vibrato
g - ghost note
> - accentuated note
t - trill
M - palm mute
. - staccato
P - popping (bass)
S - slapping (bass)
+ - tapping
W - wide vibrato
< - fade in
w - whammy bar
= - tremolo picking
v - brush up
^ - brush down
V - pick stroke up
n - pick stroke down


E |-------|--7----|--------5--7--10-8----|--7----------|--------5--7--10-8----|
B |-------|-------|----------------------|-------------|----------------------|
G |-------|-------|----------------------|-------------|----------------------|
D |-------|-------|----------------------|-------------|----------------------|
A |-------|-------|----------------------|-------------|----------------------|
E |-------|-------|----------------------|-------------|----------------------|


--7----------|--------5--7--5--3----|--5--0L------|--0----------|--7----|
-------------|----------------------|-------------|-------------|-------|
-------------|----------------------|-------------|-------------|-------|
-------------|----------------------|-------------|-------------|-------|
-------------|----------------------|-------------|-------------|-------|
-------------|----------------------|-------------|-------------|-------|


--------5--7--10-8----|--7----------|--------5--7--10-8----|--7----------|
----------------------|-------------|----------------------|-------------|
----------------------|-------------|----------------------|-------------|
----------------------|-------------|----------------------|-------------|
----------------------|-------------|----------------------|-------------|
----------------------|-------------|----------------------|-------------|


--------5--7--5--3----|--5--0L------|--0----------|--10----12-------14---|
----------------------|-------------|-------------|----------------------|
----------------------|-------------|-------------|----------------------|
----------------------|-------------|-------------|----------------------|
----------------------|-------------|-------------|----------------------|
----------------------|-------------|-------------|----------------------|


--12-10-7-------------|--7--5--7--------10---|--7--5--3-------------|
----------------------|----------------------|----------------------|
----------------------|----------------------|----------------------|
----------------------|----------------------|----------------------|
----------------------|----------------------|----------------------|
----------------------|----------------------|----------------------|


--5-----7--------10---|--7--5--3-------------|--5--5--0L---|--0----------|
----------------------|----------------------|-------------|-------------|
----------------------|----------------------|-------------|-------------|
----------------------|----------------------|-------------|-------------|
----------------------|----------------------|-------------|-------------|
----------------------|----------------------|-------------|-------------|


--3--3--3--------7----|--5----|--3--3--3--------7----|--5----|
----------------------|-------|----------------------|-------|
----------------------|-------|----------------------|-------|
----------------------|-------|----------------------|-------|
----------------------|-------|----------------------|-------|
----------------------|-------|----------------------|-------|


--3-----3--------7----|--5----|--5-----7-----5--3----|--5----------|
----------------------|-------|----------------------|-------------|
----------------------|-------|----------------------|-------------|
----------------------|-------|----------------------|-------------|
----------------------|-------|----------------------|-------------|
----------------------|-------|----------------------|-------------|


--3--3--3--------7----|--5----|--3--3--3--------10---|-------|
----------------------|-------|----------------------|--10---|
----------------------|-------|----------------------|-------|
----------------------|-------|----------------------|-------|
----------------------|-------|----------------------|-------|
----------------------|-------|----------------------|-------|

www.chordzone.org
 

--3-----3--------7----|--5----|--7--10-8-----7-------|--5----------|--3L---|
----------------------|-------|-----------------8----|-------------|-------|
----------------------|-------|----------------------|-------------|-------|
----------------------|-------|----------------------|-------------|-------|
----------------------|-------|----------------------|-------------|-------|
----------------------|-------|----------------------|-------------|-------|


--3----|-------|--7----|--------5--7--10-8----|--7----------|
-------|-------|-------|----------------------|-------------|
-------|-------|-------|----------------------|-------------|
-------|-------|-------|----------------------|-------------|
-------|-------|-------|----------------------|-------------|
-------|-------|-------|----------------------|-------------|


--------5--7--10-8----|--7----------|--------5--7--5--3----|--5--0L------|
----------------------|-------------|----------------------|-------------|
----------------------|-------------|----------------------|-------------|
----------------------|-------------|----------------------|-------------|
----------------------|-------------|----------------------|-------------|
----------------------|-------------|----------------------|-------------|


--0----------|--7----|--------5--7--10-8----|--7----------|
-------------|-------|----------------------|-------------|
-------------|-------|----------------------|-------------|
-------------|-------|----------------------|-------------|
-------------|-------|----------------------|-------------|
-------------|-------|----------------------|-------------|


--------5--7--10-8----|--7----------|--------5--7--5--3----|--5--0L------|
----------------------|-------------|----------------------|-------------|
----------------------|-------------|----------------------|-------------|
----------------------|-------------|----------------------|-------------|
----------------------|-------------|----------------------|-------------|
----------------------|-------------|----------------------|-------------|


--0----------|--10----12-------14---|--12-10-7-------------|
-------------|----------------------|----------------------|
-------------|----------------------|----------------------|
-------------|----------------------|----------------------|
-------------|----------------------|----------------------|
-------------|----------------------|----------------------|


--7--5--7--------10---|--7--5--3-------------|--5-----7--------10---|
----------------------|----------------------|----------------------|
----------------------|----------------------|----------------------|
----------------------|----------------------|----------------------|
----------------------|----------------------|----------------------|
----------------------|----------------------|----------------------|


--7--5--3-------------|--5--5--0L---|--0----------|--3--3--3--------7----|
----------------------|-------------|-------------|----------------------|
----------------------|-------------|-------------|----------------------|
----------------------|-------------|-------------|----------------------|
----------------------|-------------|-------------|----------------------|
----------------------|-------------|-------------|----------------------|


--5----|--3--3--3--------7----|--5----|--3-----3--------7----|--5----|
-------|----------------------|-------|----------------------|-------|
-------|----------------------|-------|----------------------|-------|
-------|----------------------|-------|----------------------|-------|
-------|----------------------|-------|----------------------|-------|
-------|----------------------|-------|----------------------|-------|


www.chordzone.org
 
--5-----7-----5--3----|--5----------|--3--3--3--------7----|--5----|
----------------------|-------------|----------------------|-------|
----------------------|-------------|----------------------|-------|
----------------------|-------------|----------------------|-------|
----------------------|-------------|----------------------|-------|
----------------------|-------------|----------------------|-------|


--3--3--3--------10---|-------|--3-----3--------7----|--5----|
----------------------|--10---|----------------------|-------|
----------------------|-------|----------------------|-------|
----------------------|-------|----------------------|-------|
----------------------|-------|----------------------|-------|
----------------------|-------|----------------------|-------|


--7--10-8-----7-------|--5----------|--3L---|--3----|-------||
-----------------8----|-------------|-------|-------|-------||
----------------------|-------------|-------|-------|-------||
----------------------|-------------|-------|-------|-------||
----------------------|-------------|-------|-------|-------||
----------------------|-------------|-------|-------|-------||



Recommended for you:


POPULAR SONGS

RELATED SONGS