SILLUNU ORU KAADHAL – Munbe Vaa Guitar Tabs

Enable Light Mode
#
A+
A-

This song is from the movie Sillunu Oru Kaadhal(2015), released on 19 November 2015 starring Suriya, Jyothika and Bhumika Chawla in pivotal roles, while Shriya Sharma, Sukanya, Vadivelu and Santhanam played other pivotal roles. The vocals are by Naresh Iyer, Shreya Ghoshal, the music is produced by Vaali, and the lyrics are written by A R Rahman
This song is originally in the key of Bb Minor. You can change it to any key you want, using the Transpose option. The average tempo is 135 BPM. These chords are simple and easy to play on the guitar, ukulele or piano.
Vocals: Naresh Iyer, Shreya Ghoshal,
Producer: A R Rahman,
Writer: Vaali,

Click here for the chords and lyrics version

 
Original Key: Bb Minor
Time Signature: 4/4
Tempo: 135
Suggested Strumming: DU,DU,DU,DU
c h o r d  z o n e . o r g


Legend
L - tied note
x - dead note
h - hammer on/pull off
b - bend
s - slide
~ - vibrato
g - ghost note
> - accentuated note
t - trill
M - palm mute
. - staccato
P - popping (bass)
S - slapping (bass)
+ - tapping
W - wide vibrato
< - fade in
w - whammy bar
= - tremolo picking
v - brush up
^ - brush down
V - pick stroke up
n - pick stroke down


E |-------|--1-----------1-----------1-----2--1--------1L------|
B |-------|--------------------------------------4-------------|
G |-------|----------------------------------------------------|
D |-------|----------------------------------------------------|
A |-------|----------------------------------------------------|
E |-------|----------------------------------------------------|


--1-----------1-----1--2--1-----------------1-------|
--------4-------------------------------------------|
----------------------------------------------------|
----------------------------------------------------|
----------------------------------------------------|
----------------------------------------------------|


--------1--2--1-----------------------1-------------|
--4-----------------4-----2-----4-----------2-------|
----------------------------------------------------|
----------------------------------------------------|
----------------------------------------------------|
----------------------------------------------------|


--------------------1-------------------------------|
--1-----2-----4-----------2-----------------2--1----|
----------------------------------------------------|
----------------------------------------------------|
----------------------------------------------------|
----------------------------------------------------|


----------------------------------------------------|
--------------------------------------2--1-----1----|
--3-----------------3L----3-----------------3-------|
----------------------------------------------------|
----------------------------------------------------|
----------------------------------------------------|


--------------------8-----11----9-----8-----6-------|
--2-----------2-------------------------------------|
--------3--3----------------------------------------|
----------------------------------------------------|
----------------------------------------------------|
----------------------------------------------------|


--4--2--1-----1-----2-----2-----------------2--2----|
-----------4----------------------------------------|
----------------------------------------------------|
----------------------------------------------------|
----------------------------------------------------|
----------------------------------------------------|


--2-----2--8--9-----9-----11----9-----8-----6-------|
----------------------------------------------------|
----------------------------------------------------|
----------------------------------------------------|
----------------------------------------------------|
----------------------------------------------------|


--------1-----------2-----1-----------------1--1----|
--7-----------4-------------------------------------|
----------------------------------------------------|
----------------------------------------------------|
----------------------------------------------------|
----------------------------------------------------|


--1-----8--9--11----9-----8-----6-----2-----1-------|
----------------------------------------------------|
----------------------------------------------------|
----------------------------------------------------|
----------------------------------------------------|
----------------------------------------------------|


-----1-----1--1-------------|
--4-----2--------------4----|
----------------------------|
----------------------------|
----------------------------|
----------------------------|


--------4--6--8-----6-----4-----2-----1-------------|
--4-----------------------------------------4-------|
----------------------------------------------------|
----------------------------------------------------|
----------------------------------------------------|
----------------------------------------------------|


--------------------1-------------------------------|
--1-----4-----4--------4--2-----1-------------------|
--------------------------------------1-------------|
----------------------------------------------------|
----------------------------------------------------|
----------------------------------------------------|


----------------------------|
----------------------------|
-----------3-----3--1--3----|
----------------------------|
----------------------------|
----------------------------|


----------------------------------------------------|
--------2--1--------------------2--1----------------|
--------------3--1--------------------3--1----------|
--------------------3-----------------------3-------|
----------------------------------------------------|
----------------------------------------------------|


----------------------------------------------------|
--------2--1-----------1--2-----4-----4-------------|
--3-----------1-----3-------------------------------|
----------------------------------------------------|
----------------------------------------------------|
----------------------------------------------------|


--------1-----------------------1-------------------|
--4--------4--2-----4-----4-----------4--2--1-------|
----------------------------------------------------|
----------------------------------------------------|
----------------------------------------------------|
----------------------------------------------------|


----------------------------|----------------------------|
----------------------------|----------------------------|
--1--3--3--3--1--3--3--3----|--1--3--3--3L-3L-3----------|
----------------------------|----------------------------|
----------------------------|----------------------------|
----------------------------|----------------------------|


--------------------------------1-------------------|
-----1--2-----1--2--4-----2--4--------4--2--1-------|
--3--------------------------------------------3----|
----------------------------------------------------|
----------------------------------------------------|
----------------------------------------------------|


--------------6-----6-------|--2--1--1--2----|--6-----6--6----|
----------------------------|----------------|----------------|
--1-------------------------|----------------|----------------|
-----4--3--3----------------|----------------|----------------|
----------------------------|----------------|----------------|
----------------------------|----------------|----------------|


--4--6--8-----8--9--8-------|--6--4--4--4----|--2--1--1--2----|--6-----6--6----|
----------------------------|----------------|----------------|----------------|
----------------------------|----------------|----------------|----------------|
----------------------------|----------------|----------------|----------------|
----------------------------|----------------|----------------|----------------|
----------------------------|----------------|----------------|----------------|


--4--6--8-----8--9--8-------|--6--4----------|--9----|--8--9----------|
----------------------------|----------------|-------|----------------|
----------------------------|----------------|-------|----------------|
----------------------------|----------------|-------|----------------|
----------------------------|----------------|-------|----------------|
----------------------------|----------------|-------|----------------|


--8-----9--------11L11-9----|--8-----------6-------------|
----------------------------|-----------------------9----|
----------------------------|----------------------------|
----------------------------|----------------------------|
----------------------------|----------------------------|
----------------------------|----------------------------|


--9-----------8--6--4-------|-----9----------|--8--------9L-9--11L11-9----|
-----------------------7----|--6-------------|----------------------------|
----------------------------|----------------|----------------------------|
----------------------------|----------------|----------------------------|
----------------------------|----------------|----------------------------|
----------------------------|----------------|----------------------------|


--8-----9--8----|--4--1--1--2----|--6-----6--6----|--4--6--8-----8--9--8-------|
----------------|----------------|----------------|----------------------------|
----------------|----------------|----------------|----------------------------|
----------------|----------------|----------------|----------------------------|
----------------|----------------|----------------|----------------------------|
----------------|----------------|----------------|----------------------------|


--6--4--4--4----|--2--1--1--2----|--6-----6--6----|--4--6--8-----8--9--8-------|
----------------|----------------|----------------|----------------------------|
----------------|----------------|----------------|----------------------------|
----------------|----------------|----------------|----------------------------|
----------------|----------------|----------------|----------------------------|
----------------|----------------|----------------|----------------------------|


--6--4----------|--4--6----|--8--6--6-------|--4-----6-----6-----4--2----|
----------------|----------|----------------|----------------------------|
----------------|----------|----------------|----------------------------|
----------------|----------|----------------|----------------------------|
----------------|----------|----------------|----------------------------|
----------------|----------|----------------|----------------------------|


--1--2--4-------|--4-----6--4--1-----1--2----|--4-----6--4--1-----1-------|
----------------|----------------------------|----------------------------|
----------------|----------------------------|----------------------------|
----------------|----------------------------|----------------------------|
----------------|----------------------------|----------------------------|
----------------|----------------------------|----------------------------|


--------1--1--------1-------------------------------|--1--4----|--4--6----|
--4-------------------------------------------------|----------|----------|
----------------------------------------------------|----------|----------|
----------------------------------------------------|----------|----------|
----------------------------------------------------|----------|----------|
----------------------------------------------------|----------|----------|


--8--6--6-------|--4-----4--6--6-----4--2----|--1-----1--2--4-------------|
----------------|----------------------------|----------------------------|
----------------|----------------------------|----------------------------|
----------------|----------------------------|----------------------------|
----------------|----------------------------|----------------------------|
----------------|----------------------------|----------------------------|


--4-----------6-----4-----1-----------1-----2-------|
----------------------------------------------------|
----------------------------------------------------|
----------------------------------------------------|
----------------------------------------------------|
----------------------------------------------------|


--4-----6--4--1-----1-------|
----------------------------|
----------------------------|
----------------------------|
----------------------------|
----------------------------|

www.chordzone.org
 

--------1--1--1-----1-----4-----4--6--6-----6--4----|
--4--------------------4----------------------------|
----------------------------------------------------|
----------------------------------------------------|
----------------------------------------------------|
----------------------------------------------------|


--8-----9--9--9-----9--8--8-----9-----9-----11------|-------|
----------------------------------------------------|-------|
----------------------------------------------------|-------|
----------------------------------------------------|-------|
----------------------------------------------------|-------|
----------------------------------------------------|-------|


--1--1--1--1--4-----1-------|--1-----4--------------4----|
-----------------------4----|----------------------------|
----------------------------|----------------------------|
----------------------------|----------------------------|
----------------------------|----------------------------|
----------------------------|----------------------------|


--4-----4-----4--6--4--1----|--4--6-----6----|--6-----6-----9-----6--4----|
----------------------------|----------------|----------------------------|
----------------------------|----------------|----------------------------|
----------------------------|----------------|----------------------------|
----------------------------|----------------|----------------------------|
----------------------------|----------------|----------------------------|


--6--------6--------6-----9-----------6-------------|
----------------------------------------------------|
----------------------------------------------------|
----------------------------------------------------|
----------------------------------------------------|
----------------------------------------------------|


--4-----------------------------9-----8-----9--8----|
--------------------------9-------------------------|
----------------------------------------------------|
----------------------------------------------------|
----------------------------------------------------|
----------------------------------------------------|


--6-----8--6--4-----6--4--4-----6--4--1-------------|
----------------------------------------------------|
----------------------------------------------------|
----------------------------------------------------|
----------------------------------------------------|
----------------------------------------------------|


--1--1--1--1--4-----1-------|--1-----4--------------4----|
-----------------------4----|----------------------------|
----------------------------|----------------------------|
----------------------------|----------------------------|
----------------------------|----------------------------|
----------------------------|----------------------------|


--4-----4-----4--6--4--1----|--4--6-----6----|--6-----6-----9-----6--4----|
----------------------------|----------------|----------------------------|
----------------------------|----------------|----------------------------|
----------------------------|----------------|----------------------------|
----------------------------|----------------|----------------------------|
----------------------------|----------------|----------------------------|


--6--------6--------6-----9-----------6-------------|
----------------------------------------------------|
----------------------------------------------------|
----------------------------------------------------|
----------------------------------------------------|
----------------------------------------------------|


--4-----------------------------9-----8-----9--8----|
--------------------------9-------------------------|
----------------------------------------------------|
----------------------------------------------------|
----------------------------------------------------|
----------------------------------------------------|


--6-----8--6--4-----6--4--4-----6--4--1-------------|--9--4----|
----------------------------------------------------|----------|
----------------------------------------------------|----------|
----------------------------------------------------|----------|
----------------------------------------------------|----------|
----------------------------------------------------|----------|


--------------------8L----8-----9--------11---------|--9--4----|
--------------9-------------------------------------|----------|
----------------------------------------------------|----------|
----------------------------------------------------|----------|
----------------------------------------------------|----------|
----------------------------------------------------|----------|


--------------------8L----8-----9--------11---------|
--------------9-------------------------------------|
----------------------------------------------------|
----------------------------------------------------|
----------------------------------------------------|
----------------------------------------------------|


--11----------9--11-13L-----|--13----11-9L-9--8L-8-------|
----------------------------|-----------------------9----|
----------------------------|----------------------------|
----------------------------|----------------------------|
----------------------------|----------------------------|
----------------------------|----------------------------|


--6--------4--6--------4----|--6-----6--6----|--2--1--1--2----|--6-----6--6----|
----------------------------|----------------|----------------|----------------|
----------------------------|----------------|----------------|----------------|
----------------------------|----------------|----------------|----------------|
----------------------------|----------------|----------------|----------------|
----------------------------|----------------|----------------|----------------|


--4--6--8-----8--9--8-------|--6--4--4--4----|--2--1--1--2----|--6-----6--6----|
----------------------------|----------------|----------------|----------------|
----------------------------|----------------|----------------|----------------|
----------------------------|----------------|----------------|----------------|
----------------------------|----------------|----------------|----------------|
----------------------------|----------------|----------------|----------------|


--4--6--8-----8--9--8-------|--6--4----------|--9----|--8--9----------|
----------------------------|----------------|-------|----------------|
----------------------------|----------------|-------|----------------|
----------------------------|----------------|-------|----------------|
----------------------------|----------------|-------|----------------|
----------------------------|----------------|-------|----------------|


--8-----9--------11L11-9----|--8-----------6-------------|
----------------------------|-----------------------9----|
----------------------------|----------------------------|
----------------------------|----------------------------|
----------------------------|----------------------------|
----------------------------|----------------------------|


--9-----------8--6--4-------|-----9----------|--8--------9L-9--11L11-9----|
-----------------------7----|--6-------------|----------------------------|
----------------------------|----------------|----------------------------|
----------------------------|----------------|----------------------------|
----------------------------|----------------|----------------------------|
----------------------------|----------------|----------------------------|


--8-----9--8----|--4--1--1--2----|--6-----6--6----|--4--6--8-----8--9--8-------|
----------------|----------------|----------------|----------------------------|
----------------|----------------|----------------|----------------------------|
----------------|----------------|----------------|----------------------------|
----------------|----------------|----------------|----------------------------|
----------------|----------------|----------------|----------------------------|


--6--4--4--4----|--2--1--1--2----|--6-----6--6----|--4--6--8-----8--9--8-------|
----------------|----------------|----------------|----------------------------|
----------------|----------------|----------------|----------------------------|
----------------|----------------|----------------|----------------------------|
----------------|----------------|----------------|----------------------------|
----------------|----------------|----------------|----------------------------|


--6--4----------|--4--6----|--8--6--6-------|--4-----6-----6-----4--2----|
----------------|----------|----------------|----------------------------|
----------------|----------|----------------|----------------------------|
----------------|----------|----------------|----------------------------|
----------------|----------|----------------|----------------------------|
----------------|----------|----------------|----------------------------|


--1--2--4-------|--4-----6--4--1-----1--2----|--4-----6--4--1-----1-------|
----------------|----------------------------|----------------------------|
----------------|----------------------------|----------------------------|
----------------|----------------------------|----------------------------|
----------------|----------------------------|----------------------------|
----------------|----------------------------|----------------------------|


--------1--1--------1-------------------------------|--1--4----|--4--6----|
--4-------------------------------------------------|----------|----------|
----------------------------------------------------|----------|----------|
----------------------------------------------------|----------|----------|
----------------------------------------------------|----------|----------|
----------------------------------------------------|----------|----------|


--8--6--6-------|--4-----4--6--6-----4--2----|--1-----1--2--4-------------|
----------------|----------------------------|----------------------------|
----------------|----------------------------|----------------------------|
----------------|----------------------------|----------------------------|
----------------|----------------------------|----------------------------|
----------------|----------------------------|----------------------------|


--4-----------6-----4-----1-----------1-----2-------|
----------------------------------------------------|
----------------------------------------------------|
----------------------------------------------------|
----------------------------------------------------|
----------------------------------------------------|


--4-----6--4--1-----1-------|
----------------------------|
----------------------------|
----------------------------|
----------------------------|
----------------------------|


--------------------------4-----4--6--6-----6-------|
--4-----6--6--6-----6--4-----------------------9----|
----------------------------------------------------|
----------------------------------------------------|
----------------------------------------------------|
----------------------------------------------------|


--8-----9--9--9-----9--8--8-----9-----9-----11L-----|--11---|-------|
----------------------------------------------------|-------|-------|
----------------------------------------------------|-------|-------|
----------------------------------------------------|-------|-------|
----------------------------------------------------|-------|-------|
----------------------------------------------------|-------|-------|


--1-----------1-----------1-----2--1--------1L------|
--------------------------------------4-------------|
----------------------------------------------------|
----------------------------------------------------|
----------------------------------------------------|
----------------------------------------------------|


--1-----------1-----1--2--1-----------------1-------|
--------4-------------------------------------------|
----------------------------------------------------|
----------------------------------------------------|
----------------------------------------------------|
----------------------------------------------------|


--------1--2--1-----------------------1-------------|
--4-----------------4-----2-----4-----------2-------|
----------------------------------------------------|
----------------------------------------------------|
----------------------------------------------------|
----------------------------------------------------|


--------------------1-------------------------------|
--1-----2-----4-----------2-----------------2--1----|
----------------------------------------------------|
----------------------------------------------------|
----------------------------------------------------|
----------------------------------------------------|


----------------------------------------------------|
--------------------------------------2--1-----1----|
--3-----------------3L----3-----------------3-------|
----------------------------------------------------|
----------------------------------------------------|
----------------------------------------------------|


--------------------8-----11----9-----8-----6-------|
--2-----------2-------------------------------------|
--------3--3----------------------------------------|
----------------------------------------------------|
----------------------------------------------------|
----------------------------------------------------|


--4--2--1-----1-----2-----2-----------------2--2----|
-----------4----------------------------------------|
----------------------------------------------------|
----------------------------------------------------|
----------------------------------------------------|
----------------------------------------------------|


--2-----2--8--9-----9-----11----9-----8-----6-------|
----------------------------------------------------|
----------------------------------------------------|
----------------------------------------------------|
----------------------------------------------------|
----------------------------------------------------|


--2-----1-----------2-----1-----------------1--1----|
--------------4-------------------------------------|
----------------------------------------------------|
----------------------------------------------------|
----------------------------------------------------|
----------------------------------------------------|


--1-----8--9--11----9-----8-----6-----2-----1-------|
----------------------------------------------------|
----------------------------------------------------|
----------------------------------------------------|
----------------------------------------------------|
----------------------------------------------------|


-----1-----1--1-------------|
--4-----2--------------4----|
----------------------------|
----------------------------|
----------------------------|
----------------------------|


--------4--6--8-----6-----4-----2-----1-------------|
--4-----------------------------------------4-------|
----------------------------------------------------|
----------------------------------------------------|
----------------------------------------------------|
----------------------------------------------------|


--------------------1-------------------------------|
--1-----4-----4--------4--2-----1-------------------|
--------------------------------------1-------------|
----------------------------------------------------|
----------------------------------------------------|
----------------------------------------------------|


----------------------------|
----------------------------|
-----------3-----3--1--3----|
----------------------------|
----------------------------|
----------------------------|


----------------------------------------------------|
--------2--1--------------------2--1----------------|
--------------3--1--------------------3--1----------|
--------------------3-----------------------3-------|
----------------------------------------------------|
----------------------------------------------------|


----------------------------------------------------|
--------2--1-----------1--2-----4-----4-------------|
--3-----------1-----3-------------------------------|
----------------------------------------------------|
----------------------------------------------------|
----------------------------------------------------|


--------1-----------------------1-------------------|
--4--------4--2-----4-----4-----------4--2--1-------|
----------------------------------------------------|
----------------------------------------------------|
----------------------------------------------------|
----------------------------------------------------|


----------------------------|----------------------------|
----------------------------|----------------------------|
--1--3--3--3--1--3--3--3----|--1--3--3--3L-3L-3----------|
----------------------------|----------------------------|
----------------------------|----------------------------|
----------------------------|----------------------------|


--------------------------------1-------------------|
-----1--2-----1--2--4-----2--4--------4--2--1-------|
--3--------------------------------------------3----|
----------------------------------------------------|
----------------------------------------------------|
----------------------------------------------------|


--------------------------6-----------6-------------|--2--1--1--2----|
----------------------------------------------------|----------------|
--1-------------------------------------------------|----------------|
--------4-----3-----3-------------------------------|----------------|
----------------------------------------------------|----------------|
----------------------------------------------------|----------------|


--6-----6--6----|--4--6--8-----8--9--8-------|--6--4--4--4----|--2--1--1--2----|
----------------|----------------------------|----------------|----------------|
----------------|----------------------------|----------------|----------------|
----------------|----------------------------|----------------|----------------|
----------------|----------------------------|----------------|----------------|
----------------|----------------------------|----------------|----------------|


--6-----6--6----|--4--6--8-----8--9--8-------|--6--4----------|--9----|
----------------|----------------------------|----------------|-------|
----------------|----------------------------|----------------|-------|
----------------|----------------------------|----------------|-------|
----------------|----------------------------|----------------|-------|
----------------|----------------------------|----------------|-------|


--8--9----------|--8-----9--------11L11-9----|--8-----------6-------------|
----------------|----------------------------|-----------------------9----|
----------------|----------------------------|----------------------------|
----------------|----------------------------|----------------------------|
----------------|----------------------------|----------------------------|
----------------|----------------------------|----------------------------|


--9-----------8--6--4-------|-----9----------|--8--------9L-9--11L11-9----|
-----------------------7----|--6-------------|----------------------------|
----------------------------|----------------|----------------------------|
----------------------------|----------------|----------------------------|
----------------------------|----------------|----------------------------|
----------------------------|----------------|----------------------------|


--8-----9--8----|--4--1--1--2----|--6-----6--6----|--4--6--8-----8--9--8-------|
----------------|----------------|----------------|----------------------------|
----------------|----------------|----------------|----------------------------|
----------------|----------------|----------------|----------------------------|
----------------|----------------|----------------|----------------------------|
----------------|----------------|----------------|----------------------------|


--6--4--4--4----|--2--1--1--2----|--6-----6--6----|--4--6--8-----8--9--8-------|
----------------|----------------|----------------|----------------------------|
----------------|----------------|----------------|----------------------------|
----------------|----------------|----------------|----------------------------|
----------------|----------------|----------------|----------------------------|
----------------|----------------|----------------|----------------------------|


--6--4----------|--4--6----|--8--6--6-------|--4-----6-----6-----4--2----|
----------------|----------|----------------|----------------------------|
----------------|----------|----------------|----------------------------|
----------------|----------|----------------|----------------------------|
----------------|----------|----------------|----------------------------|
----------------|----------|----------------|----------------------------|


--1--2--4-------|--4-----6--4--1-----1--2----|--4-----6--4--1-----1-------|
----------------|----------------------------|----------------------------|
----------------|----------------------------|----------------------------|
----------------|----------------------------|----------------------------|
----------------|----------------------------|----------------------------|
----------------|----------------------------|----------------------------|


--------1--1--------1-------------------------------|--1--4----|--4--6----|
--4-------------------------------------------------|----------|----------|
----------------------------------------------------|----------|----------|
----------------------------------------------------|----------|----------|
----------------------------------------------------|----------|----------|
----------------------------------------------------|----------|----------|


--8--6--6-------|--4-----4--6--6-----4--2----|--1-----1--2--4-------------|
----------------|----------------------------|----------------------------|
----------------|----------------------------|----------------------------|
----------------|----------------------------|----------------------------|
----------------|----------------------------|----------------------------|
----------------|----------------------------|----------------------------|


--4-----------6-----4-----1-----------1-----2-------|
----------------------------------------------------|
----------------------------------------------------|
----------------------------------------------------|
----------------------------------------------------|
----------------------------------------------------|


--4-----6--4--1-----1-------|
----------------------------|
----------------------------|
----------------------------|
----------------------------|
----------------------------|


--------------------------4-----4--6--6-----6-------|
--4-----6--6--6-----6--4-----------------------9----|
----------------------------------------------------|
----------------------------------------------------|
----------------------------------------------------|
----------------------------------------------------|


--8-----9--9--9-----9--8--8-----9-----9-----11------|-------|
----------------------------------------------------|-------|
----------------------------------------------------|-------|
----------------------------------------------------|-------|
----------------------------------------------------|-------|
----------------------------------------------------|-------|


--1--1--1--1--4-------------|--------4--------------4----|
--------------------6--4----|--6-------------------------|
----------------------------|----------------------------|
----------------------------|----------------------------|
----------------------------|----------------------------|
----------------------------|----------------------------|


--4-----4-----4--6--4--1----|--4--6-----6----|--6-----6-----9-----6--4----|
----------------------------|----------------|----------------------------|
----------------------------|----------------|----------------------------|
----------------------------|----------------|----------------------------|
----------------------------|----------------|----------------------------|
----------------------------|----------------|----------------------------|


--6--------6--------6-----9-----------6-------------|
----------------------------------------------------|
----------------------------------------------------|
----------------------------------------------------|
----------------------------------------------------|
----------------------------------------------------|


--4-----------------------------9-----8-----9--8----|
--------------------------9-------------------------|
----------------------------------------------------|
----------------------------------------------------|
----------------------------------------------------|
----------------------------------------------------|


--6-----8--6--4-----6--4--4-----6--4--1-------------|
----------------------------------------------------|
----------------------------------------------------|
----------------------------------------------------|
----------------------------------------------------|
----------------------------------------------------|


--1--1--1--1--4-----1-------|--1-----4--------------4----|
-----------------------4----|----------------------------|
----------------------------|----------------------------|
----------------------------|----------------------------|
----------------------------|----------------------------|
----------------------------|----------------------------|


--4-----4-----4--6--4--1----|--4--6-----6----|--6-----6-----9-----6--4----|
----------------------------|----------------|----------------------------|
----------------------------|----------------|----------------------------|
----------------------------|----------------|----------------------------|
----------------------------|----------------|----------------------------|
----------------------------|----------------|----------------------------|


--6--------6--------6-----9-----------6-------------|
----------------------------------------------------|
----------------------------------------------------|
----------------------------------------------------|
----------------------------------------------------|
----------------------------------------------------|


--4-----------------------------9-----8-----9--8----|
--------------------------9-------------------------|
----------------------------------------------------|
----------------------------------------------------|
----------------------------------------------------|
----------------------------------------------------|


--6-----8--6--4-----6--4--4-----6--4----------------|--9--4----|
--------------------------------------6-------------|----------|
----------------------------------------------------|----------|
----------------------------------------------------|----------|
----------------------------------------------------|----------|
----------------------------------------------------|----------|


--------------------8L----8-----9--------11---------|--9--4----|
--------------9-------------------------------------|----------|
----------------------------------------------------|----------|
----------------------------------------------------|----------|
----------------------------------------------------|----------|
----------------------------------------------------|----------|


--------------------8L----8-----9--------11---------|
--------------9-------------------------------------|
----------------------------------------------------|
----------------------------------------------------|
----------------------------------------------------|
----------------------------------------------------|


--11----------9--11-13L-----|--13----11-9L-9--8L-8-------|
----------------------------|-----------------------9----|
----------------------------|----------------------------|
----------------------------|----------------------------|
----------------------------|----------------------------|
----------------------------|----------------------------|


--6--------4--6--------4----|--6-----6--6----|--2--1--1--2----|--6-----6--6----|
----------------------------|----------------|----------------|----------------|
----------------------------|----------------|----------------|----------------|
----------------------------|----------------|----------------|----------------|
----------------------------|----------------|----------------|----------------|
----------------------------|----------------|----------------|----------------|


--4--6--8-----8--9--8-------|--6--4--4--4----|--2--1--1--2----|--6-----6--6----|
----------------------------|----------------|----------------|----------------|
----------------------------|----------------|----------------|----------------|
----------------------------|----------------|----------------|----------------|
----------------------------|----------------|----------------|----------------|
----------------------------|----------------|----------------|----------------|


--4--6--8-----8--9--8-------|--6--4----------|--9----|--8--9----------|
----------------------------|----------------|-------|----------------|
----------------------------|----------------|-------|----------------|
----------------------------|----------------|-------|----------------|
----------------------------|----------------|-------|----------------|
----------------------------|----------------|-------|----------------|


--8-----9--------11L11-9----|--8-----------6-------------|
----------------------------|-----------------------9----|
----------------------------|----------------------------|
----------------------------|----------------------------|
----------------------------|----------------------------|
----------------------------|----------------------------|


--9-----------8--6--4-------|-----9----------|--8--------9L-9--11L11-9----|
-----------------------7----|--6-------------|----------------------------|
----------------------------|----------------|----------------------------|
----------------------------|----------------|----------------------------|
----------------------------|----------------|----------------------------|
----------------------------|----------------|----------------------------|


--8-----9--8----|--4--1--1--2----|--6-----6--6----|--4--6--8-----8--9--8-------|
----------------|----------------|----------------|----------------------------|
----------------|----------------|----------------|----------------------------|
----------------|----------------|----------------|----------------------------|
----------------|----------------|----------------|----------------------------|
----------------|----------------|----------------|----------------------------|


--6--4--4--4----|--2--1--1--2----|--6-----6--6----|--4--6--8-----8--9--8-------|
----------------|----------------|----------------|----------------------------|
----------------|----------------|----------------|----------------------------|
----------------|----------------|----------------|----------------------------|
----------------|----------------|----------------|----------------------------|
----------------|----------------|----------------|----------------------------|


--6--4----------|--4--6----|--8--6--6-------|--4-----6-----6-----4--2----|
----------------|----------|----------------|----------------------------|
----------------|----------|----------------|----------------------------|
----------------|----------|----------------|----------------------------|
----------------|----------|----------------|----------------------------|
----------------|----------|----------------|----------------------------|


--1--2--4-------|--4-----6--4--1-----1--2----|--4-----6--4--1-----1-------|
----------------|----------------------------|----------------------------|
----------------|----------------------------|----------------------------|
----------------|----------------------------|----------------------------|
----------------|----------------------------|----------------------------|
----------------|----------------------------|----------------------------|


--------1--1--------1-------------------------------|--1--4----|--4--6----|
--4-------------------------------------------------|----------|----------|
----------------------------------------------------|----------|----------|
----------------------------------------------------|----------|----------|
----------------------------------------------------|----------|----------|
----------------------------------------------------|----------|----------|


--8--6--6-------|--4-----4--6--6-----4--2----|--1-----1--2--4-------------|
----------------|----------------------------|----------------------------|
----------------|----------------------------|----------------------------|
----------------|----------------------------|----------------------------|
----------------|----------------------------|----------------------------|
----------------|----------------------------|----------------------------|


--4-----------6-----4-----1-----------1-----2-------|
----------------------------------------------------|
----------------------------------------------------|
----------------------------------------------------|
----------------------------------------------------|
----------------------------------------------------|


www.chordzone.org
 
--4-----6--4--1-----1-------|
----------------------------|
----------------------------|
----------------------------|
----------------------------|
----------------------------|


--------1--1--1-----1-----4-----4--6--6-----6--4----|
--4--------------------4----------------------------|
----------------------------------------------------|
----------------------------------------------------|
----------------------------------------------------|
----------------------------------------------------|


--8-----9--9--9-----9--8--8-----9-----9-----11L-----|--11---||
----------------------------------------------------|-------||
----------------------------------------------------|-------||
----------------------------------------------------|-------||
----------------------------------------------------|-------||
----------------------------------------------------|-------||


Recommended for you:


Click to rate this post!
[Total: 0 Average: 0]

To The Top Get The Guitar Tabs

See Also