Now Reading
THE NEIGHBOURHOOD – Sweater Weather Guitar Tabs

THE NEIGHBOURHOOD – Sweater Weather Guitar Tabs

Enable Light Mode
#
A+
A-

This song is from the album I Love You.(2012), released on 03 December 2012. The vocals are by ​Jesse, the music is produced by Jeremy Freedman, Zach Abels , ​Jesse, and the lyrics are written by Emile Haynie , Justyn Pilbrow.
This song is originally in the key of G Minor. You can change it to any key you want, using the Transpose option. The average tempo is 123 BPM. These chords are simple and easy to play on the guitar, ukulele or piano.

Click here for the chords and lyrics version

 
Original Key: G Minor
Time Signature: 4/4
Tempo: 123
Suggested Strumming: DU,DU,DU,DU
c h o r d  z o n e . o r g


Legend
L - tied note
x - dead note
h - hammer on/pull off
b - bend
s - slide
~ - vibrato
g - ghost note
> - accentuated note
t - trill
M - palm mute
. - staccato
P - popping (bass)
S - slapping (bass)
+ - tapping
W - wide vibrato
< - fade in
w - whammy bar
= - tremolo picking
v - brush up
^ - brush down
V - pick stroke up
n - pick stroke down


E |-------|----------------------------------------------------|
B |-------|--------------------------1-----------------3L------|
G |-------|-----------------------------------3L-3-------------|
D |-------|----------------------------------------------------|
A |-------|----------------------------------------------------|
E |-------|----------------------------------------------------|


----------------------------|
--3-----------1--------3L---|
--------------------3-------|
----------------------------|
----------------------------|
----------------------------|


----------------------------------------------------|
--3-----------------1-----1-----------------3L------|
-----------------------------------3L-3-------------|
----------------------------------------------------|
----------------------------------------------------|
----------------------------------------------------|


www.chordzone.org
 
----------------------------|
--3-----------1-----3--1L---|
----------------------------|
----------------------------|
----------------------------|
----------------------------|


----------------------------------------------------|
--1-----------------1-----1-----------------3L------|
-----------------------------------3L-3-------------|
----------------------------------------------------|
----------------------------------------------------|
----------------------------------------------------|


----------------------------------------------------|
--3-----------------------1-----------------3L------|
-----------------------------------3L-3-------------|
----------------------------------------------------|
----------------------------------------------------|
----------------------------------------------------|


----------------------------|
--3-----------1-----3--1L---|
-----------0----------------|
----------------------------|
----------------------------|
----------------------------|


----------------------------------------------------|
--1-----------------------1--------3L-3-----1L------|
--------3-----0-----3-------------------------------|
----------------------------------------------------|
----------------------------------------------------|
----------------------------------------------------|


----------------------------|----------------------------|
--1-----------1--1--1--1----|--1-----------1--1--3--1L---|
--------3--3----------------|----------------------------|
----------------------------|----------------------------|
----------------------------|----------------------------|
----------------------------|----------------------------|


----------------------------|----------------------------|----------------|
--1-----------1--1--1--1L---|--1-----------1--1--1--1----|--3-----3--3----|
-----3L-3-------------------|--------3--3----------------|----------------|
----------------------------|----------------------------|----------------|
----------------------------|----------------------------|----------------|
----------------------------|----------------------------|----------------|


-----------------------------------1L-1-------------|
--3-----------------------------------------3L------|
--------------------3-----3-------------------------|
----------------------------------------------------|
----------------------------------------------------|
----------------------------------------------------|


----------------------------|
--3-----------3--1--3-------|
----------------------------|
----------------------------|
----------------------------|
----------------------------|


----------------------------------------------------|----------------|
--3-----1-----3-----------3--------3L-3-----1L------|--1-----1-------|
----------------------------------------------------|-----------0----|
----------------------------------------------------|----------------|
----------------------------------------------------|----------------|
----------------------------------------------------|----------------|


----------------------------------------------------|
--------1-----1-----1--1--1-------------------------|
--------------------------------3--3L-3L-------3L---|
----------------------------------------------------|
----------------------------------------------------|
----------------------------------------------------|


----------------------------------------------------|
--------------1-----1--1--1-----1--3L-3-------------|
--3-------------------------------------------------|
----------------------------------------------------|
----------------------------------------------------|
----------------------------------------------------|


----------------------------|----------------------------|
-----3--1-------------------|-----3--1-------------------|
-----------------3--3-------|-----------------3--3-------|
----------------------------|----------------------------|
----------------------------|----------------------------|
----------------------------|----------------------------|


----------------------------|----------------------------|
-----1--3-------------------|-----3--1-------------------|
-----------------3--3-------|-----------------3--3-------|
----------------------------|----------------------------|
----------------------------|----------------------------|
----------------------------|----------------------------|


----------------------------------------------------|
--1--1--1--1--1L-1--1--1--1-----------------3L------|
--------------------------------3--3L-3-------------|
----------------------------------------------------|
----------------------------------------------------|
----------------------------------------------------|


----------------------------|----------------------------|----------------|
--3--------1--1-----1L-1----|--1--3--1-----------4-------|--3--------4----|
----------------------------|-----------3--0-------------|--------0-------|
----------------------------|----------------------------|----------------|
----------------------------|----------------------------|----------------|
----------------------------|----------------------------|----------------|


----------------------------|----------------------------|
--3L----------3-------------|--1--------1--1-------------|
-----------------------3----|--------------------3L-3----|
----------------------------|----------------------------|
----------------------------|----------------------------|
----------------------------|----------------------------|


----------------------------|----------------|----------------------------|
--1--3--1-----------4-------|--3--------4----|--3-------------------------|
-----------3--0-------------|--------0-------|--------------3--------2----|
----------------------------|----------------|----------------------------|
----------------------------|----------------|----------------------------|
----------------------------|----------------|----------------------------|


----------------------------|----------------------------|----------------|
----------------------------|--1--3--1-----------4-------|--3--------4----|
--2-----2--2--2--3L-3L-3----|-----------3--0-------------|--------0-------|
----------------------------|----------------------------|----------------|
----------------------------|----------------------------|----------------|
----------------------------|----------------------------|----------------|


----------------------------|----------------------------|
--3L----------3-------------|--1--------1--1-------------|
-----------------------3----|--------------------3L-3----|
----------------------------|----------------------------|
----------------------------|----------------------------|
----------------------------|----------------------------|


----------------------------|----------------|----------------------------|
--1--3--1-----------4-------|--3--------4----|--3-------------------------|
-----------3--0-------------|--------0-------|--------------3--------2----|
----------------------------|----------------|----------------------------|
----------------------------|----------------|----------------------------|
----------------------------|----------------|----------------------------|


----------------------------|-------|-------|
----------------------------|-------|-------|
--2-----2--2--2--3L-3L-3L---|--3----|-------|
----------------------------|-------|-------|
----------------------------|-------|-------|
----------------------------|-------|-------|


----------------------------------------------------|
--------------------------1-----------------3L------|
-----------------------------------3L-3-------------|
----------------------------------------------------|
----------------------------------------------------|
----------------------------------------------------|


----------------------------|
--3-----------1--------3L---|
--------------------3-------|
----------------------------|
----------------------------|
----------------------------|


----------------------------------------------------|
--3-----------------1-----1-----------------3L------|
-----------------------------------3L-3-------------|
----------------------------------------------------|
----------------------------------------------------|
----------------------------------------------------|


----------------------------|
--3-----------1-----3--1L---|
----------------------------|
----------------------------|
----------------------------|
----------------------------|


----------------------------------------------------|
--1-----------------1-----1-----------------3L------|
-----------------------------------3L-3-------------|
----------------------------------------------------|
----------------------------------------------------|
----------------------------------------------------|


----------------------------------------------------|
--3-----------------------1-----------------3L------|
-----------------------------------3L-3-------------|
----------------------------------------------------|
----------------------------------------------------|
----------------------------------------------------|


----------------------------|
--3-----------1-----3--1L---|
-----------0----------------|
----------------------------|
----------------------------|
----------------------------|


----------------------------------------------------|
--1-----------------------1--------3L-3-----1L------|
--------3-----0-----3-------------------------------|
----------------------------------------------------|
----------------------------------------------------|
----------------------------------------------------|


----------------------------|----------------------------|
--1-----------1--1--1--1----|--1-----------1--1--3--1L---|
--------3--3----------------|----------------------------|
----------------------------|----------------------------|
----------------------------|----------------------------|
----------------------------|----------------------------|


----------------------------|----------------------------|----------------|
--1-----------1--1--1--1L---|--1-----------1--1--1--1----|--3-----3--3----|
-----3L-3-------------------|--------3--3----------------|----------------|
----------------------------|----------------------------|----------------|
----------------------------|----------------------------|----------------|
----------------------------|----------------------------|----------------|


-----------------------------------1L-1-------------|
--3-----------------------------------------3L------|
--------------------3-----3-------------------------|
----------------------------------------------------|
----------------------------------------------------|
----------------------------------------------------|


----------------------------|
--3-----------3--1--3-------|
----------------------------|
----------------------------|
----------------------------|
----------------------------|


----------------------------------------------------|----------------|
--3-----1-----3-----------3--------3L-3-----1L------|--1-----1-------|
----------------------------------------------------|-----------0----|
----------------------------------------------------|----------------|
----------------------------------------------------|----------------|
----------------------------------------------------|----------------|


----------------------------------------------------|
--------1-----1-----1--1--1-------------------------|
--------------------------------3--3L-3L-------3L---|
----------------------------------------------------|
----------------------------------------------------|
----------------------------------------------------|


----------------------------------------------------|
--------------1-----1--1--1-----1--3L-3-------------|
--3-------------------------------------------------|
----------------------------------------------------|
----------------------------------------------------|
----------------------------------------------------|


----------------------------|----------------------------|
-----3--1-------------------|-----3--1-------------------|
-----------------3--3-------|-----------------3--3-------|
----------------------------|----------------------------|
----------------------------|----------------------------|
----------------------------|----------------------------|


----------------------------|----------------------------|
-----1--3-------------------|-----3--1-------------------|
-----------------3--3-------|-----------------3--3-------|
----------------------------|----------------------------|
----------------------------|----------------------------|
----------------------------|----------------------------|


----------------------------------------------------|
--1--1--1--1--1L-1--1--1--1-----------------3L------|
--------------------------------3--3L-3-------------|
----------------------------------------------------|
----------------------------------------------------|
----------------------------------------------------|


----------------------------|----------------------------|----------------|
--3--------1--1-----1L-1----|--1--3--1-----------4-------|--3--------4----|
----------------------------|-----------3--0-------------|--------0-------|
----------------------------|----------------------------|----------------|
----------------------------|----------------------------|----------------|
----------------------------|----------------------------|----------------|


----------------------------|----------------------------|
--3L----------3-------------|--1--------1--1-------------|
-----------------------3----|--------------------3L-3----|
----------------------------|----------------------------|
----------------------------|----------------------------|
----------------------------|----------------------------|


----------------------------|----------------|----------------------------|
--1--3--1-----------4-------|--3--------4----|--3-------------------------|
-----------3--0-------------|--------0-------|--------------3--------2----|
----------------------------|----------------|----------------------------|
----------------------------|----------------|----------------------------|
----------------------------|----------------|----------------------------|


----------------------------|----------------------------|----------------|
----------------------------|--1--3--1-----------4-------|--3--------4----|
--2-----2--2--2--3L-3L-3----|-----------3--0-------------|--------0-------|
----------------------------|----------------------------|----------------|
----------------------------|----------------------------|----------------|
----------------------------|----------------------------|----------------|


----------------------------|----------------------------|
--3L----------3-------------|--1--------1--1-------------|
-----------------------3----|--------------------3L-3----|
----------------------------|----------------------------|
----------------------------|----------------------------|
----------------------------|----------------------------|


----------------------------|----------------|----------------------------|
--1--3--1-----------4-------|--3--------4----|--3-------------------------|
-----------3--0-------------|--------0-------|--------------3--------2----|
----------------------------|----------------|----------------------------|
----------------------------|----------------|----------------------------|
----------------------------|----------------|----------------------------|

www.chordzone.org
 

----------------------------|-------||
----------------------------|-------||
--2-----2--2--2--3L-3L-3L---|--3----||
----------------------------|-------||
----------------------------|-------||
----------------------------|-------||


Recommended for you:


Click to rate this post!
[Total: 0 Average: 0]

To The Top Get The Guitar Tabs

See Also