Now Reading
SHREY SINGHAL feat EVELYN SHARMA – Khudaai Guitar Tabs

SHREY SINGHAL feat EVELYN SHARMA – Khudaai Guitar Tabs

Enable Light Mode
#
A+
A-

This single was released on 15 January 2015. The vocals are by Shrey Singhal , Evelyn Sharma, the music is produced by Shrey Singhal, and the lyrics are written by Shrey Singhal .
This song is originally in the key of B Minor. You can change it to any key you want, using the Transpose option. The average tempo is 76 BPM. These chords are simple and easy to play on the guitar, ukulele or piano.

Click here for the chords and lyrics version

 
Original Key: B Minor
Time Signature: 4/4
Tempo: 76
Suggested Strumming: DU,DU,DU,DU
c h o r d  z o n e . o r g


Legend
L - tied note
x - dead note
h - hammer on/pull off
b - bend
s - slide
~ - vibrato
g - ghost note
> - accentuated note
t - trill
M - palm mute
. - staccato
P - popping (bass)
S - slapping (bass)
+ - tapping
W - wide vibrato
< - fade in
w - whammy bar
= - tremolo picking
v - brush up
^ - brush down
V - pick stroke up
n - pick stroke down


E |-------|----------------------------------------------------|
B |-------|--3-----3--2--3-----3--2--3-----3--2--3-----2-------|
G |-------|----------------------------------------------------|
D |-------|----------------------------------------------------|
A |-------|----------------------------------------------------|
E |-------|----------------------------------------------------|

www.chordzone.org
 

----------------------------------------------------|
--2L----------2--0--------0-------------------------|
-----------------------2----------------------------|
----------------------------------------------------|
----------------------------------------------------|
----------------------------------------------------|


----------------------------------------------------|
--3-----3--2--3-----3--2--3--2--3--2--3-----3--2----|
----------------------------------------------------|
----------------------------------------------------|
----------------------------------------------------|
----------------------------------------------------|


----------------------------------------------------|
--2L----------2--0--------0-------------------------|
-----------------------2----------------------------|
----------------------------------------------------|
----------------------------------------------------|
----------------------------------------------------|


----------------------------------------------------|
--3--2--0-------------------------------------------|
-----------2L-2-------------------------------------|
----------------------------------------------------|
----------------------------------------------------|
----------------------------------------------------|


----------------------------------------------------|
--3--2--0-------------------------------------------|
-----------2L-2-------------------------------------|
----------------------------------------------------|
----------------------------------------------------|
----------------------------------------------------|


----------------------------------------------------|
--2-----2--0--2-----2--0--2-----0-----0L------------|
-----------------------------------2----------------|
----------------------------------------------------|
----------------------------------------------------|
----------------------------------------------------|


----------------------------------------------------|
--0-----------------------------------------0--2----|
----------------------------------------------------|
----------------------------------------------------|
----------------------------------------------------|
----------------------------------------------------|


----------------------------------------------------|
--3--2--3--3-----2-----0--------2-----------0--2----|
--------------------------2-------------------------|
----------------------------------------------------|
----------------------------------------------------|
----------------------------------------------------|


----------------------------------------------------|
--3--2--3--3-----2-----0--------2-----------0-------|
--------------------------2-------------------------|
----------------------------------------------------|
----------------------------------------------------|
----------------------------------------------------|


----------------------------------------------------|
--3-----3--3-----2-----0--------2-----------0--2----|
--------------------------2-------------------------|
----------------------------------------------------|
----------------------------------------------------|
----------------------------------------------------|


----------------------------------------------------|----------------|-------|
--3--2--3--3-----2-----0--------2L----2L------------|--2-------------|-------|
--------------------------2-------------------------|----------------|-------|
----------------------------------------------------|----------------|-------|
----------------------------------------------------|----------------|-------|
----------------------------------------------------|----------------|-------|


----------------------------------------------------|
--3-----3--2--3-----3--2--3-----3--2--3-----2-------|
----------------------------------------------------|
----------------------------------------------------|
----------------------------------------------------|
----------------------------------------------------|


----------------------------------------------------|
--2L----------2--0--------0-------------------------|
-----------------------2----------------------------|
----------------------------------------------------|
----------------------------------------------------|
----------------------------------------------------|


----------------------------------------------------|
--3-----3--2--3-----3--2--3--2--3--2--3-----3--2----|
----------------------------------------------------|
----------------------------------------------------|
----------------------------------------------------|
----------------------------------------------------|


----------------------------------------------------|
--2L----------2--0--------0-------------------------|
-----------------------2----------------------------|
----------------------------------------------------|
----------------------------------------------------|
----------------------------------------------------|


----------------------------------------------------|
--3--2--0-------------------------------------------|
-----------2L-2-------------------------------------|
----------------------------------------------------|
----------------------------------------------------|
----------------------------------------------------|


----------------------------------------------------|
--3--2--0-------------------------------------------|
-----------2L-2-------------------------------------|
----------------------------------------------------|
----------------------------------------------------|
----------------------------------------------------|


----------------------------------------------------|
--2-----2--0--2-----2--0--2-----0-----0L------------|
-----------------------------------2----------------|
----------------------------------------------------|
----------------------------------------------------|
----------------------------------------------------|


----------------------------------------------------|
--0-----------------------------------------0--2----|
----------------------------------------------------|
----------------------------------------------------|
----------------------------------------------------|
----------------------------------------------------|


----------------------------------------------------|
--3--2--3--3-----2-----0--------2-----------0--2----|
--------------------------2-------------------------|
----------------------------------------------------|
----------------------------------------------------|
----------------------------------------------------|

www.chordzone.org
 

----------------------------------------------------|
--3--2--3--3-----2-----0--------2-----------0-------|
--------------------------2-------------------------|
----------------------------------------------------|
----------------------------------------------------|
----------------------------------------------------|


----------------------------------------------------|
--3-----3--3-----2-----0--------2-----------0--2----|
--------------------------2-------------------------|
----------------------------------------------------|
----------------------------------------------------|
----------------------------------------------------|


----------------------------------------------------|----------------||
--3--2--3--3-----2-----0--------2L----2L------------|--2-------------||
--------------------------2-------------------------|----------------||
----------------------------------------------------|----------------||
----------------------------------------------------|----------------||
----------------------------------------------------|----------------||


 

Recommended for you:


Click to rate this post!
[Total: 0 Average: 0]

To The Top Get The Guitar Tabs

See Also