Now Reading
JUSTIN BIEBER – Ghost Guitar Tabs

JUSTIN BIEBER – Ghost Guitar Tabs

Enable Light Mode
#
A+
A-

This song is from the album Justice(2021), released on 19 March 2021. The vocals are by Justin Bieber, the music is produced by Michael Pollack, Stefan Johnson, Jordan K. Johnson, Jon Bellion , Justin Bieber, and the lyrics are written by Jon Bellion , The Monsters , Strangerz.
This song is originally in the key of D Major. You can change it to any key you want, using the Transpose option. The average tempo is 74 BPM. These chords are simple and easy to play on the guitar, ukulele or piano.

Click here for the chords and lyrics version

 
Original Key: D Major
Time Signature: 4/4
Tempo: 74
Suggested Strumming: DU,DU,DU,DU
c h o r d  z o n e . o r g

Legend
L - tied note
x - dead note
h - hammer on/pull off
b - bend
s - slide
~ - vibrato
g - ghost note
> - accentuated note
t - trill
M - palm mute
. - staccato
P - popping (bass)
S - slapping (bass)
+ - tapping
W - wide vibrato
< - fade in
w - whammy bar
= - tremolo picking
v - brush up
^ - brush down
V - pick stroke up
n - pick stroke down


E |-------|--7-----5-----2-----5--0L---|--0--------2--0-------------|
B |-------|----------------------------|-----3L-3-----------3L------|
G |-------|----------------------------|----------------------------|
D |-------|----------------------------|----------------------------|
A |-------|----------------------------|----------------------------|
E |-------|----------------------------|----------------------------|


----------------|-------|--7-----5-----2-----5--0L---|
--3-------------|-------|----------------------------|
----------------|-------|----------------------------|
----------------|-------|----------------------------|
----------------|-------|----------------------------|
----------------|-------|----------------------------|


--0--------2--0-------------|----------------|-----------------------2----|
-----3L-3-----------3L------|--3-------------|----------------------------|
----------------------------|----------------|----------------------------|
----------------------------|----------------|----------------------------|
----------------------------|----------------|----------------------------|
----------------------------|----------------|----------------------------|


--2--0--2--0--2-----5-------|--0-----3--2L---|--2-------------|
----------------------------|-----3----------|----------------|
----------------------------|----------------|----------------|
----------------------------|----------------|----------------|
----------------------------|----------------|----------------|
----------------------------|----------------|----------------|

www.chordzone.org
 

--------------------7--9----|--10-9--7--5L-5-----10-9----|
----------------------------|----------------------------|
----------------------------|----------------------------|
----------------------------|----------------------------|
----------------------------|----------------------------|
----------------------------|----------------------------|


--7--5L-5-----------10------|--10-12-14-12L--|--12-10-14-17---|--19----14-17L--|
----------------------------|----------------|----------------|----------------|
----------------------------|----------------|----------------|----------------|
----------------------------|----------------|----------------|----------------|
----------------------------|----------------|----------------|----------------|
----------------------------|----------------|----------------|----------------|


--17----12-10L10------------|--------17----17-15-14-12---|
----------------------------|----------------------------|
----------------------------|----------------------------|
----------------------------|----------------------------|
----------------------------|----------------------------|
----------------------------|----------------------------|


--12-------10-10------------|-----14-14-10---|--15-------14L14----10L-----|
----------------------------|----------------|----------------------------|
----------------------------|----------------|----------------------------|
----------------------------|----------------|----------------------------|
----------------------------|----------------|----------------------------|
----------------------------|----------------|----------------------------|


--10------|-----10-14-17---|--19----14-17L--|--17----12-10L10------------|
----------|----------------|----------------|----------------------------|
----------|----------------|----------------|----------------------------|
----------|----------------|----------------|----------------------------|
----------|----------------|----------------|----------------------------|
----------|----------------|----------------|----------------------------|


--------17----17-15-14-12---|--12-------10-10------------|-----14-14-10---|
----------------------------|----------------------------|----------------|
----------------------------|----------------------------|----------------|
----------------------------|----------------------------|----------------|
----------------------------|----------------------------|----------------|
----------------------------|----------------------------|----------------|


--15-------14L14----10L-----|--10-14-14-10---|--15-------14L14----10L-----|
----------------------------|----------------|----------------------------|
----------------------------|----------------|----------------------------|
----------------------------|----------------|----------------------------|
----------------------------|----------------|----------------------------|
----------------------------|----------------|----------------------------|


--10L--|--10---|-------|--7-----5-----2-----5--0L---|
-------|-------|-------|----------------------------|
-------|-------|-------|----------------------------|
-------|-------|-------|----------------------------|
-------|-------|-------|----------------------------|
-------|-------|-------|----------------------------|


--0--------2--0-------------|----------------|-------|
-----3L-3-----------3L------|--3-------------|-------|
----------------------------|----------------|-------|
----------------------------|----------------|-------|
----------------------------|----------------|-------|
----------------------------|----------------|-------|


--7-----5-----2-----5--0L---|--0--------2--0-------------|----------------|
----------------------------|-----3L-3-----------3L------|--3-------------|
----------------------------|----------------------------|----------------|
----------------------------|----------------------------|----------------|
----------------------------|----------------------------|----------------|
----------------------------|----------------------------|----------------|


-----------------------2----|--2--0--2--0--2-----5-------|--0-----3--2L---|
----------------------------|----------------------------|-----3----------|
----------------------------|----------------------------|----------------|
----------------------------|----------------------------|----------------|
----------------------------|----------------------------|----------------|
----------------------------|----------------------------|----------------|


--2-------------|--------------------7--9----|--10-9--7--5L-5-----10-9----|
----------------|----------------------------|----------------------------|
----------------|----------------------------|----------------------------|
----------------|----------------------------|----------------------------|
----------------|----------------------------|----------------------------|
----------------|----------------------------|----------------------------|

www.chordzone.org
 

--7--5L-5-----------10------|--10-12-14-12L--|--12-10-14-17---|--19----14-17L--|
----------------------------|----------------|----------------|----------------|
----------------------------|----------------|----------------|----------------|
----------------------------|----------------|----------------|----------------|
----------------------------|----------------|----------------|----------------|
----------------------------|----------------|----------------|----------------|


--17----12-10L10------------|--------17----17-15-14-12---|
----------------------------|----------------------------|
----------------------------|----------------------------|
----------------------------|----------------------------|
----------------------------|----------------------------|
----------------------------|----------------------------|


--12-------10-10------------|-----14-14-10---|--15-------14L14----10L-----|
----------------------------|----------------|----------------------------|
----------------------------|----------------|----------------------------|
----------------------------|----------------|----------------------------|
----------------------------|----------------|----------------------------|
----------------------------|----------------|----------------------------|


--10------|-----10-14-17---|--19----14-17L--|--17----12-10L10------------|
----------|----------------|----------------|----------------------------|
----------|----------------|----------------|----------------------------|
----------|----------------|----------------|----------------------------|
----------|----------------|----------------|----------------------------|
----------|----------------|----------------|----------------------------|


--------17----17-15-14-12---|--12-------10-10------------|-----14-14-10---|
----------------------------|----------------------------|----------------|
----------------------------|----------------------------|----------------|
----------------------------|----------------------------|----------------|
----------------------------|----------------------------|----------------|
----------------------------|----------------------------|----------------|


--15-------14L14----10L-----|--10-14-14-10---|--15-------14L14----10L-----|
----------------------------|----------------|----------------------------|
----------------------------|----------------|----------------------------|
----------------------------|----------------|----------------------------|
----------------------------|----------------|----------------------------|
----------------------------|----------------|----------------------------|


--10L--|--10---||
-------|-------||
-------|-------||
-------|-------||
-------|-------||
-------|-------||


Recommended for you:


Click to rate this post!
[Total: 0 Average: 0]

To The Top Get The Guitar Tabs

See Also