skip to content

RAMLEELA – Laal Ishq Guitar Tabs

#
A+
A-


RAMLEELA - Laal Ishq

This song is from the movie Ramleela (2013), released on 02 October 2013 starring Ranveer Singh, Deepika Padukone, Gulshan Devaiah and Richa Chadda. It is sung by Arijit Singh. What a beautiful composition! I love the slow rhythm, the ambient background and the beautiful singing. The lyrics are well written and Arijit Singh has made it even more beautiful. The production makes you feel like you are listening to a devotional song, and that adds even more vibe to the song.This song is originally in the key of Eb Major. You can change it to any key you want, using the Transpose option. The average tempo is 100 BPM. These chords are simple and easy to play on the guitar or piano.
Vocals: Arijit Singh,
Producer(s): Sanjay Leela Bhansali,
Writer(s): Siddharth-Garima,

Click here for the chords and lyrics version

 
Original Key: Eb Major
Time Signature: 4/4
Tempo: 100
Suggested Strumming: DU,DU,DU,DU
c h o r d  z o n e . o r g

 
Legend
L - tied note
x - dead note
h - hammer on/pull off
b - bend
s - slide
~ - vibrato
g - ghost note
> - accentuated note
t - trill
M - palm mute
. - staccato
P - popping (bass)
S - slapping (bass)
+ - tapping
W - wide vibrato
< - fade in
w - whammy bar
= - tremolo picking
v - brush up
^ - brush down
V - pick stroke up
n - pick stroke down


E |----------------------------|--1-------------------------|
B |-----------------------3----|--------4--4L-4--4--4--3----|
G |----------------------------|----------------------------|
D |----------------------------|----------------------------|
A |----------------------------|----------------------------|
E |----------------------------|----------------------------|


--1-------------------------|
--------4--4L-4--4--4--3----|
----------------------------|
----------------------------|
----------------------------|
----------------------------|


--1-----------1-----3L----3-----3-----3--4--6-------|
----------------------------------------------------|
----------------------------------------------------|
----------------------------------------------------|
----------------------------------------------------|
----------------------------------------------------|


----------------------------|--1-------------------------|
--6-----4--4L-4--4-----3----|--------4--4L-4--4--4--3----|
----------------------------|----------------------------|
----------------------------|----------------------------|
----------------------------|----------------------------|
----------------------------|----------------------------|


--1-------------------------|
--------4--4L-4--4--4--3----|
----------------------------|
----------------------------|
----------------------------|
----------------------------|


--1-----------1-----3L----3-----3-----3--4--6-------|
----------------------------------------------------|
----------------------------------------------------|
----------------------------------------------------|
----------------------------------------------------|
----------------------------------------------------|


----------------------------|----------------------------|
--6-----4--4L-4--4L-4-------|--4-----4--4L-4--4L-4-------|
----------------------------|----------------------------|
----------------------------|----------------------------|
----------------------------|----------------------------|
----------------------------|----------------------------|


--------------3--6--10-11---|--10L---------10-6L-6--8----|
--4-----4--4----------------|----------------------------|
----------------------------|----------------------------|
----------------------------|----------------------------|
----------------------------|----------------------------|
----------------------------|----------------------------|

www.chordzone.org
 

--5-----6-----------3--4----|--3----|--------------3--6--10-11---|
----------------------------|-------|----------------------------|
----------------------------|-------|----------------------------|
----------------------------|-------|----------------------------|
----------------------------|-------|----------------------------|
----------------------------|-------|----------------------------|


--10-11-10-11-10-6L-6--8----|
----------------------------|
----------------------------|
----------------------------|
----------------------------|
----------------------------|


--5-----------6-----------------------3-----4--6----|
----------------------------------------------------|
----------------------------------------------------|
----------------------------------------------------|
----------------------------------------------------|
----------------------------------------------------|


--4--3L-3-------------------|-----------6--3--6----------|
----------------------------|--------------------6--4----|
----------------------------|----------------------------|
----------------------------|----------------------------|
----------------------------|----------------------------|
----------------------------|----------------------------|


--------1--1--5L------------|--5--6--5--6L-6-------------|-------|
--3-------------------------|-----------------6L-6-------|--4----|
----------------------------|----------------------------|-------|
----------------------------|----------------------------|-------|
----------------------------|----------------------------|-------|
----------------------------|----------------------------|-------|


--6--------6--3--6----------|
--------------------6--4----|
----------------------------|
----------------------------|
----------------------------|
----------------------------|


--------------1-----1-----5--6--5--6--5L------------|
--3-------------------------------------------------|
----------------------------------------------------|
----------------------------------------------------|
----------------------------------------------------|
----------------------------------------------------|


--5--6--5--6L-6-------------|-------|--------------------5--5----|
-----------------6L-6-------|--4----|----------------------------|
----------------------------|-------|----------------------------|
----------------------------|-------|----------------------------|
----------------------------|-------|----------------------------|
----------------------------|-------|----------------------------|


--6-----6--6L-6--6L-6L------|
----------------------------|
----------------------------|
----------------------------|
----------------------------|
----------------------------|


--6-----------------------------------10-8--11------|
----------------------------------------------------|
----------------------------------------------------|
----------------------------------------------------|
----------------------------------------------------|
----------------------------------------------------|


--10----6--6L-6--6L-6L------|--6-----------------6--5----|
----------------------------|----------------------------|
----------------------------|----------------------------|
----------------------------|----------------------------|
----------------------------|----------------------------|
----------------------------|----------------------------|


--6-----------6-----6L----6-----6-----10-8--11------|
----------------------------------------------------|
----------------------------------------------------|
----------------------------------------------------|
----------------------------------------------------|
----------------------------------------------------|


--10----------6-----6L----6-----6-----11-10-13------|
----------------------------------------------------|
----------------------------------------------------|
----------------------------------------------------|
----------------------------------------------------|
----------------------------------------------------|


--11----------11----11L---11----11----11-10-13------|
----------------------------------------------------|
----------------------------------------------------|
----------------------------------------------------|
----------------------------------------------------|
----------------------------------------------------|


--11----------11----11L---11----11----15-13-16------|
----------------------------------------------------|
----------------------------------------------------|
----------------------------------------------------|
----------------------------------------------------|
----------------------------------------------------|


--15----10-11-10------------|-----------1L-1--1L-1-------|
--------------------4--4----|--3-----3--------------3----|
----------------------------|----------------------------|
----------------------------|----------------------------|
----------------------------|----------------------------|
----------------------------|----------------------------|


--1-------------------------|--1-------------------------|
--------4--4L-4--4--4--3----|--------4--4L-4--4--4--3----|
----------------------------|----------------------------|
----------------------------|----------------------------|
----------------------------|----------------------------|
----------------------------|----------------------------|


--1-----------1-----3L----3-----3-----3--4--6-------|
----------------------------------------------------|
----------------------------------------------------|
----------------------------------------------------|
----------------------------------------------------|
----------------------------------------------------|


----------------------------|--1-------------------------|
--6-----4--4L-4--4-----3----|--------4--4L-4--4--4--3----|
----------------------------|----------------------------|
----------------------------|----------------------------|
----------------------------|----------------------------|
----------------------------|----------------------------|


--1-------------------------|
--------4--4L-4--4--4--3----|
----------------------------|
----------------------------|
----------------------------|
----------------------------|


--1-----------1-----3L----3-----3-----3--4--6-------|
----------------------------------------------------|
----------------------------------------------------|
----------------------------------------------------|
----------------------------------------------------|
----------------------------------------------------|


----------------------------|----------------------------|
--6-----4--4L-4--4L-4L------|--4--------------------3----|
----------------------------|----------------------------|
----------------------------|----------------------------|
----------------------------|----------------------------|
----------------------------|----------------------------|


--1-------------------------|--1-------------------------|
--------4--4L-4--4--4--3----|--------4--4L-4--4--4--3----|
----------------------------|----------------------------|
----------------------------|----------------------------|
----------------------------|----------------------------|
----------------------------|----------------------------|


--1-----------1-----3L----3-----3-----3--4--6-------|
----------------------------------------------------|
----------------------------------------------------|
----------------------------------------------------|
----------------------------------------------------|
----------------------------------------------------|


----------------------------|--1-------------------------|
--6-----4--4L-4--4-----3----|--------4--4L-4--4--4--3----|
----------------------------|----------------------------|
----------------------------|----------------------------|
----------------------------|----------------------------|
----------------------------|----------------------------|


--1-------------------------|
--------4--4L-4--4--4--3----|
----------------------------|
----------------------------|
----------------------------|
----------------------------|


--1-----------1-----3L----3-----3-----3--4--6-------|
----------------------------------------------------|
----------------------------------------------------|
----------------------------------------------------|
----------------------------------------------------|
----------------------------------------------------|


----------------------------|----------------------------|
--6-----4--4L-4--4L-4-------|--4-----4--4L-4--4L-4-------|
----------------------------|----------------------------|
----------------------------|----------------------------|
----------------------------|----------------------------|
----------------------------|----------------------------|


--------------3--6--10-11---|--10L---------10-6L-6--8----|
--4-----4--4----------------|----------------------------|
----------------------------|----------------------------|
----------------------------|----------------------------|
----------------------------|----------------------------|
----------------------------|----------------------------|


--5-----6-----------3--4----|--3----|--------------3--6--10-11---|
----------------------------|-------|----------------------------|
----------------------------|-------|----------------------------|
----------------------------|-------|----------------------------|
----------------------------|-------|----------------------------|
----------------------------|-------|----------------------------|


--10-11-10-11-10-6L-6--8----|
----------------------------|
----------------------------|
----------------------------|
----------------------------|
----------------------------|


--5-----------6-----------------------3-----4--6----|
----------------------------------------------------|
----------------------------------------------------|
----------------------------------------------------|
----------------------------------------------------|
----------------------------------------------------|

www.chordzone.org
 

--4--3L-3-------------------|-----------6--3--6----------|
----------------------------|--------------------6--4----|
----------------------------|----------------------------|
----------------------------|----------------------------|
----------------------------|----------------------------|
----------------------------|----------------------------|


--------1--1--5L------------|--5--6--5--6L-6-------------|-------|
--3-------------------------|-----------------6L-6-------|--4----|
----------------------------|----------------------------|-------|
----------------------------|----------------------------|-------|
----------------------------|----------------------------|-------|
----------------------------|----------------------------|-------|


--6--------6--3--6----------|
--------------------6--4----|
----------------------------|
----------------------------|
----------------------------|
----------------------------|


--------------1-----1-----5--6--5--6--5L------------|
--3-------------------------------------------------|
----------------------------------------------------|
----------------------------------------------------|
----------------------------------------------------|
----------------------------------------------------|


--5--6--5--6L-6-------------|-------|--------------------5--5----|
-----------------6L-6-------|--4----|----------------------------|
----------------------------|-------|----------------------------|
----------------------------|-------|----------------------------|
----------------------------|-------|----------------------------|
----------------------------|-------|----------------------------|


--6-----6--6L-6--6L-6L------|
----------------------------|
----------------------------|
----------------------------|
----------------------------|
----------------------------|


--6-----------------------------------10-8--11------|
----------------------------------------------------|
----------------------------------------------------|
----------------------------------------------------|
----------------------------------------------------|
----------------------------------------------------|


--10----6--6L-6--6L-6L------|--6-----------------6--5----|
----------------------------|----------------------------|
----------------------------|----------------------------|
----------------------------|----------------------------|
----------------------------|----------------------------|
----------------------------|----------------------------|


--6-----------6-----6L----6-----6-----10-8--11------|
----------------------------------------------------|
----------------------------------------------------|
----------------------------------------------------|
----------------------------------------------------|
----------------------------------------------------|


--10----------6-----6L----6-----6-----11-10-13------|
----------------------------------------------------|
----------------------------------------------------|
----------------------------------------------------|
----------------------------------------------------|
----------------------------------------------------|


--11----------11----11L---11----11----11-10-13------|
----------------------------------------------------|
----------------------------------------------------|
----------------------------------------------------|
----------------------------------------------------|
----------------------------------------------------|


--11----------11----11L---11----11----15-13-16------|
----------------------------------------------------|
----------------------------------------------------|
----------------------------------------------------|
----------------------------------------------------|
----------------------------------------------------|


--15----10-11-10------------|-----------1L-1--1L-1-------|
--------------------4--4----|--3-----3--------------3----|
----------------------------|----------------------------|
----------------------------|----------------------------|
----------------------------|----------------------------|
----------------------------|----------------------------|


--1-------------------------|--1-------------------------|
--------4--4L-4--4--4--3----|--------4--4L-4--4--4--3----|
----------------------------|----------------------------|
----------------------------|----------------------------|
----------------------------|----------------------------|
----------------------------|----------------------------|


--1-----------1-----3L----3-----3-----3--4--6-------|
----------------------------------------------------|
----------------------------------------------------|
----------------------------------------------------|
----------------------------------------------------|
----------------------------------------------------|


----------------------------|--1-------------------------|
--6-----4--4L-4--4-----3----|--------4--4L-4--4--4--3----|
----------------------------|----------------------------|
----------------------------|----------------------------|
----------------------------|----------------------------|
----------------------------|----------------------------|


--1-------------------------|
--------4--4L-4--4--4--3----|
----------------------------|
----------------------------|
----------------------------|
----------------------------|


--1-----------1-----3L----3-----3-----3--4--6-------|
----------------------------------------------------|
----------------------------------------------------|
----------------------------------------------------|
----------------------------------------------------|
----------------------------------------------------|


----------------------------|
--6-----4--4L-4--4L-4L------|
----------------------------|
----------------------------|
----------------------------|
----------------------------|


----------------------------------------------------||
--4L----------------4-------------------------------||
----------------------------------------------------||
----------------------------------------------------||
----------------------------------------------------||
----------------------------------------------------||


 

Recommended for you:


POPULAR SONGS

RELATED SONGS