Now Reading
MEMBER RAMESHAN 9AAM WARD – Alare Guitar Tabs

MEMBER RAMESHAN 9AAM WARD – Alare Guitar Tabs

Enable Light Mode
#
A+
A-

This song is from the movie Member Rameshan 9aam Ward, released on 25 February 2021 starring Arjun Ashokan, Gayathri Ashok. The vocals are by Ayraan, Nithya Mammen, the music is produced by Shabareesh, and the lyrics are written by Kailas​
This song is originally in the key of Eb Major. You can change it to any key you want, using the Transpose option. The average tempo is 76 BPM. These chords are simple and easy to play on the guitar, ukulele or piano.
Vocals: Ayraan, Nithya Mammen,
Producer: Kailas​,
Writer: Shabareesh,

Click here for the chords and lyrics version
Requested By Shiljo Abrahams

 
Original Key: Eb Major
Time Signature: 4/4
Tempo: 55
Suggested Strumming: DU,DU,DU,DU
c h o r d  z o n e . o r g
 
 
Legend
L - tied note
x - dead note
h - hammer on/pull off
b - bend
s - slide
~ - vibrato
g - ghost note
> - accentuated note
t - trill
M - palm mute
. - staccato
P - popping (bass)
S - slapping (bass)
+ - tapping
W - wide vibrato
< - fade in
w - whammy bar
= - tremolo picking
v - brush up
^ - brush down
V - pick stroke up
n - pick stroke down


E |-------|-----------6-----6-----8--4--------3----------------|
B |-------|--------------------------------------------4--4----|
G |-------|----------------------------------------------------|
D |-------|----------------------------------------------------|
A |-------|----------------------------------------------------|
E |-------|----------------------------------------------------|


--4--------3L-3-------------------------------------|
----------------------------------------------------|
----------------------------------------------------|
----------------------------------------------------|
----------------------------------------------------|
----------------------------------------------------|


--------------6--6-----8--4--------3--------4--3----|
--------4-------------------------------------------|
----------------------------------------------------|
----------------------------------------------------|
----------------------------------------------------|
----------------------------------------------------|

   www.chordzone.org

--1-----3--4-----6L-------6-------------------------|
----------------------------------------------------|
----------------------------------------------------|
----------------------------------------------------|
----------------------------------------------------|
----------------------------------------------------|


--------15-13-15----15-13-11-------11-------6L------|
----------------------------------------------------|
----------------------------------------------------|
----------------------------------------------------|
----------------------------------------------------|
----------------------------------------------------|


--6--------15----11----11-10------------------------|
----------------------------------------------------|
----------------------------------------------------|
----------------------------------------------------|
----------------------------------------------------|
----------------------------------------------------|


--------15-13----15-13----11-------11---------------|
--------------------------------------------11L-----|
----------------------------------------------------|
----------------------------------------------------|
----------------------------------------------------|
----------------------------------------------------|


--------15-13----11----11-10------------------------|
--11------------------------------------------------|
----------------------------------------------------|
----------------------------------------------------|
----------------------------------------------------|
----------------------------------------------------|


--------11-------11-------13----------13L-----------|
-----------11----------11---------------------------|
----------------------------------------------------|
----------------------------------------------------|
----------------------------------------------------|
----------------------------------------------------|
 www.chordzone.org

--13----10-8-----10----11-11------------------------|
----------------------------------------------------|
----------------------------------------------------|
----------------------------------------------------|
----------------------------------------------------|
----------------------------------------------------|


--------------------------------------------6--10---|
----------------------------------------------------|
----------------------------------------------------|
----------------------------------------------------|
----------------------------------------------------|
----------------------------------------------------|


--11-------11----11----10-13----------------6--10---|
----------------------------------------------------|
----------------------------------------------------|
----------------------------------------------------|
----------------------------------------------------|
----------------------------------------------------|


--11-------11----11----10-13----------------11-10---|
----------------------------------------------------|
----------------------------------------------------|
----------------------------------------------------|
----------------------------------------------------|
----------------------------------------------------|


--7--------7-----8-----10-11-------4-----4-----3----|
----------------------------------------------------|
----------------------------------------------------|
----------------------------------------------------|
----------------------------------------------------|
----------------------------------------------------|


--6-----------------------------------------6--10---|
----------------------------------------------------|
----------------------------------------------------|
----------------------------------------------------|
----------------------------------------------------|
----------------------------------------------------|


--11-------11----11----10-13----------------6--10---|
----------------------------------------------------|
----------------------------------------------------|
----------------------------------------------------|
----------------------------------------------------|
----------------------------------------------------|


--11-------11----11----15-13----------------11-10---|
----------------------------------------------------|
----------------------------------------------------|
----------------------------------------------------|
----------------------------------------------------|
----------------------------------------------------|


--7--------7-----8-----10-11-------4-----4-----3----|--6-------|
----------------------------------------------------|----------|
----------------------------------------------------|----------|
----------------------------------------------------|----------|
----------------------------------------------------|----------|
----------------------------------------------------|----------|


-----------6-----6-----8--4--------3----------------|
--------------------------------------------4--4----|
----------------------------------------------------|
----------------------------------------------------|
----------------------------------------------------|
----------------------------------------------------|


--4--------3L-3-------------------------------------|
----------------------------------------------------|
----------------------------------------------------|
----------------------------------------------------|
----------------------------------------------------|
----------------------------------------------------|


--------------6--6-----8--4--------3--------4--3----|
--------4-------------------------------------------|
----------------------------------------------------|
----------------------------------------------------|
----------------------------------------------------|
----------------------------------------------------|


--1-----3--4-----6L-------6-------------------------|-------||
----------------------------------------------------|-------||
----------------------------------------------------|-------||
----------------------------------------------------|-------||
----------------------------------------------------|-------||
----------------------------------------------------|-------||


Recommended for you:


Click to rate this post!
[Total: 0 Average: 0]

To The Top Get The Guitar Tabs

See Also