Now Reading
REDBONE – Come And Get Your Love Guitar Tabs

REDBONE – Come And Get Your Love Guitar Tabs

Enable Light Mode
#
A+
A-

This song is from the album Guardians of the Galaxy: Awesome Mix, Vol. 1, released on 01 November 1973.
This album was produced by Pat Vegas , Lolly Vegas. It is originally in the key of D Major. You can change it to any key you want, using the Transpose option. The average tempo is 108 BPM. These chords are simple and easy to play on the guitar or piano.
Vocals: Redbone ,
Producer(s): Pat Vegas , Lolly Vegas,
Writer(s): Lolly Vegas,

Click here for the chords and lyrics version

 
Original Key: D Major
Time Signature: 4/4
Tempo: 108
Suggested Strumming: DU,DU,DU,DU
c h o r d  z o n e . o r g

Legend
L - tied note
x - dead note
h - hammer on/pull off
b - bend
s - slide
~ - vibrato
g - ghost note
> - accentuated note
t - trill
M - palm mute
. - staccato
P - popping (bass)
S - slapping (bass)
+ - tapping
W - wide vibrato
< - fade in
w - whammy bar
= - tremolo picking
v - brush up
^ - brush down
V - pick stroke up
n - pick stroke down

www.chordzone.org
 

E |-------|----------------------------|----------------------------|
B |-------|--3-----0-----3-----0-------|-----3--0-----3--3--0-------|
G |-------|-----------2-----------2----|-----------2-----------2----|
D |-------|----------------------------|----------------------------|
A |-------|----------------------------|----------------------------|
E |-------|----------------------------|----------------------------|


----------------------------|----------------------------|----------------|
--3-----0-----3-----0-------|-----3--0-----3--3--0-------|--3--0--3--0----|
-----------2-----------2----|-----------2-----------2----|----------------|
----------------------------|----------------------------|----------------|
----------------------------|----------------------------|----------------|
----------------------------|----------------------------|----------------|


-----2-----0----------------|----------------------------|
--------------3--3--0-------|--3-----0-----3-----0-------|
-----------------------2----|-----------2-----------2----|
----------------------------|----------------------------|
----------------------------|----------------------------|
----------------------------|----------------------------|


--------2--------0----------------------------------|----------------|
--------------------------3L-3L-3-------------------|--3--0--3--0----|
----------------------------------------------------|----------------|
----------------------------------------------------|----------------|
----------------------------------------------------|----------------|
----------------------------------------------------|----------------|


-----2--2--0----------------|----------------------------|
--------------3--3--0-------|--3-----0-----3-----0L-0----|
-----------------------2----|-----------2----------------|
----------------------------|----------------------------|
----------------------------|----------------------------|
----------------------------|----------------------------|


----------------------------|--2--0----------------------|
-----3--3--0--3L-3--0-------|--------3-------------------|
----------------------------|----------------------------|
----------------------------|----------------------------|
----------------------------|----------------------------|
----------------------------|----------------------------|


-----2-----0----------------|----------------------------|
--------------3--3--0-------|--3-----0-----3-----0-------|
-----------------------2----|-----------2-----------2----|
----------------------------|----------------------------|
----------------------------|----------------------------|
----------------------------|----------------------------|


----------------------------|--------2-----0--0L-0-------|
-----3--0-----3L-3--0-------|-----------3-----------3L---|
-----------2----------------|----------------------------|
----------------------------|----------------------------|
----------------------------|----------------------------|
----------------------------|----------------------------|


----------------------------------------------------|
--3--0----------------------------------------------|
--------2-------------------------------------------|
----------------------------------------------------|
----------------------------------------------------|
----------------------------------------------------|


--------2-----0--0L-0-------|
-----------3-----------3L---|
----------------------------|
----------------------------|
----------------------------|
----------------------------|


-----0--2-------------------------------------------|
--3-------------------------------------------------|
----------------------------------------------------|
----------------------------------------------------|
----------------------------------------------------|
----------------------------------------------------|


--------2-----0--0L-0-------|
-----------3-----------3L---|
----------------------------|
----------------------------|
----------------------------|
----------------------------|


----------------------------------------------------|
--3--0----------------------------------------------|
--------2-------------------------------------------|
----------------------------------------------------|
----------------------------------------------------|
----------------------------------------------------|


--------2-----0--0L-0-------|-------|-------|----------------------------|
-----------3-----------3L---|--3----|-------|--3-----0-----3-----0-------|
----------------------------|-------|-------|-----------2-----------2----|
----------------------------|-------|-------|----------------------------|
----------------------------|-------|-------|----------------------------|
----------------------------|-------|-------|----------------------------|


----------------------------|----------------------------|
-----3--0-----3--3--0-------|--3-----0-----3-----0-------|
-----------2-----------2----|-----------2-----------2----|
----------------------------|----------------------------|
----------------------------|----------------------------|
----------------------------|----------------------------|


----------------------------|----------------|-----2-----0----------------|
-----3--0-----3--3--0-------|--3--0--3--0----|--------------3--3--0-------|
-----------2-----------2----|----------------|-----------------------2----|
----------------------------|----------------|----------------------------|
----------------------------|----------------|----------------------------|
----------------------------|----------------|----------------------------|


----------------------------|
--3-----0-----3-----0-------|
-----------2-----------2----|
----------------------------|
----------------------------|
----------------------------|


--------2--------0----------------------------------|----------------|
--------------------------3L-3L-3-------------------|--3--0--3--0----|
----------------------------------------------------|----------------|
----------------------------------------------------|----------------|
----------------------------------------------------|----------------|
----------------------------------------------------|----------------|


-----2--2--0----------------|----------------------------|
--------------3--3--0-------|--3-----0-----3-----0L-0----|
-----------------------2----|-----------2----------------|
----------------------------|----------------------------|
----------------------------|----------------------------|
----------------------------|----------------------------|


----------------------------|--2--0----------------------|
-----3--3--0--3L-3--0-------|--------3-------------------|
----------------------------|----------------------------|
----------------------------|----------------------------|
----------------------------|----------------------------|
----------------------------|----------------------------|


-----2-----0----------------|----------------------------|
--------------3--3--0-------|--3-----0-----3-----0-------|
-----------------------2----|-----------2-----------2----|
----------------------------|----------------------------|
----------------------------|----------------------------|
----------------------------|----------------------------|


----------------------------|--------2-----0--0L-0-------|
-----3--0-----3L-3--0-------|-----------3-----------3L---|
-----------2----------------|----------------------------|
----------------------------|----------------------------|
----------------------------|----------------------------|
----------------------------|----------------------------|


----------------------------------------------------|
--3--0----------------------------------------------|
--------2-------------------------------------------|
----------------------------------------------------|
----------------------------------------------------|
----------------------------------------------------|


--------2-----0--0L-0-------|
-----------3-----------3L---|
----------------------------|
----------------------------|
----------------------------|
----------------------------|


-----0--2-------------------------------------------|
--3-------------------------------------------------|
----------------------------------------------------|
----------------------------------------------------|
----------------------------------------------------|
----------------------------------------------------|


--------2-----0--0L-0-------|
-----------3-----------3L---|
----------------------------|
----------------------------|
----------------------------|
----------------------------|


www.chordzone.org
 
----------------------------------------------------|
--3--0----------------------------------------------|
--------2-------------------------------------------|
----------------------------------------------------|
----------------------------------------------------|
----------------------------------------------------|


--------2-----0--0L-0-------|-------||
-----------3-----------3L---|--3----||
----------------------------|-------||
----------------------------|-------||
----------------------------|-------||
----------------------------|-------||


Recommended for you:


Click to rate this post!
[Total: 0 Average: 0]

To The Top Get The Guitar Tabs

See Also