Now Reading
TAYLOR SWIFT – The 1 Chords for Guitar and Piano

TAYLOR SWIFT – The 1 Chords for Guitar and Piano

Enable Light Mode
#
A+
A-

This song is from the album folklore(2020), released on 24 July 2020.
This album was produced by Aaron Dessner. It is originally in the key of C Major. You can change it to any key you want, using the Transpose option. The average tempo is 70 BPM. These chords are simple and easy to play on the guitar or piano.
Vocals: Taylor Swift ,
Producer(s): Aaron Dessner,
Writer(s): Aaron Dessner , Taylor Swift,

 
Original Key: C Major
Time Signature: 4/4
Tempo: 70
Suggested Strumming: DU,DU,DU,DU
c h o r d  z o n e . o r g
 [INTRO]

  F C F C x2
 . 
 [VERSE ONE]
 F            C                    F 
 I'm doing good, I'm on some new shit
        C                        F
 Been saying "yes" instead of "no"
     C                                    F         C
 I thought I saw you at the bus stop, I didn't though
 F   C                            F
 I hit the ground running each night
     C                   Dm
 I hit the Sunday matinée
      C                                         F      C
 You know the greatest films of all time were never made
 
 [PRE-CHORUS]
 F    C                         F
 I guess you never know, never know
      C                                       Dm 
 And if you wanted me, you really should've showed
       C                                     Dm
 And if you never bleed, you're never gonna grow
               C
 And it's alright now
 
 www.chordzone.org

 [CHORUS]
  Am      C                               F
 But we were something, don't you think so?
  C                                        Dm
 Roaring twenties, tossing pennies in the pool
     C                    Dm C
 And if my wishes came true
  C                Am
 It would've been you
  G                     F 
 In my defense, I have none
 C                                Dm
 For never leaving well enough alone
  C                   Dm
 But it would've been fun
  C                       F C
 If you would've been the one
   F C F C
 (Ooh)
 
 [VERSE TWO]
     C                                  F
 I have this dream you're doing cool shit
  C                          F
 Having adventures on your own
      C                                    F       C
 You meet some woman on the internet and take her home
  Dm     C                         Dm
 We never painted by the numbers, baby
      C                  F
 But we were making it count
     C                                      F         C
 You know the greatest loves of all time are over now

 [PRE-CHORUS]
  F   C                          F 
 I guess you never know, never know
            C                       Am
 And it's another day waking up alone
 
 www.chordzone.org

 [CHORUS]
      C                                   F
 But we were something, don't you think so?
     C                                     Dm
 Roaring twenties, tossing pennies in the pool
      C                  Dm
 And if my wishes came true
  C                Am
 It would've been you
   C                     F
 In my defense, I have none
   C                             Dm
 For never leaving well enough alone
   C                   Dm
 But it would've been fun
   C                       Am
 If you would've been the one
 
 [BRIDGE]
  G        F              C
 I, I, I persist and resist the temptation to ask you
      Dm                  C
 If one thing had been different
        Dm               C         Am
 Would everything be different today?
 
 [CHORUS]
       G                            F
 We were something, don't you think so?
   C                             Dm
 Rosé flowing with your chosen family
      C                 Dm
 And it would've been sweet
   C                 Am
 If it could've been me
  G                       F
 In my defense, I have none
     C                             Dm
 For digging up the grave another time
     C                  Dm
 But it would've been fun
   C                      Dm C 
 If you would've been the one
   Dm C
 (Ooh)

 

E |----|-----------------3--0-------------------------------|
B |----|-----------------------3--3--3--3--3--3-----1L------|
G |----|----------------------------------------------------|
D |----|----------------------------------------------------|
A |----|----------------------------------------------------|
E |----|----------------------------------------------------|


-----------------3--0-----------------0L------------|
--1L----------1--------3--3--3--3--3----------------|
----------------------------------------------------|
----------------------------------------------------|
----------------------------------------------------|
----------------------------------------------------|


--0L----------0--3--0-------------------------------|
-----------------------3--3--3--3--3--3-----1--3----|
----------------------------------------------------|
----------------------------------------------------|
----------------------------------------------------|
----------------------------------------------------|


----------------------------------------------------|
--3--1--1L----1-------------------------------------|
----------------------------------------------------|
----------------------------------------------------|
----------------------------------------------------|
----------------------------------------------------|


-----------------3--0-----------------------0L------|
-----------------------3--3-----3--1--3--1----------|
----------------------------------------------------|
----------------------------------------------------|
----------------------------------------------------|
----------------------------------------------------|


--0L----------0--3--0-------------------------------|
-----------------------3--3--3--3-----1L------------|
----------------------------------------------------|
----------------------------------------------------|
----------------------------------------------------|
----------------------------------------------------|


-----------------3--0-------------------------------|
--1L----------1--------3--3--3--3--3--3-----1--3----|
----------------------------------------------------|
----------------------------------------------------|
----------------------------------------------------|
----------------------------------------------------|


----------------------------------------------------|
--3--1--1L----1-------------------------------------|
----------------------------------------------------|
----------------------------------------------------|
----------------------------------------------------|
----------------------------------------------------|


-----------------------------0-----------0----------|
-----------------1--1--1--3-----1-----3-----1L------|
----------------------------------------------------|
----------------------------------------------------|
----------------------------------------------------|
----------------------------------------------------|


-----------------------------0-----------0----------|
--1L----------1--1--1--1--3-----1-----3-----3--1----|
----------------------------------------------------|
----------------------------------------------------|
----------------------------------------------------|
----------------------------------------------------|


-----------------------------0-----------0----------|
--3L----------3--1--1--1--3-----1--1--3-----3--1----|
----------------------------------------------------|
----------------------------------------------------|
----------------------------------------------------|
----------------------------------------------------|


--------------1-----------0-------------------------|
--3--------1-----------------3-----1L-1L------------|
----------------------------------------------------|
----------------------------------------------------|
----------------------------------------------------|
----------------------------------------------------|


--------------------0-----0-----0-----0-----0-------|
--1--------------3-----3-----3-----3----------------|
----------------------------------------------------|
----------------------------------------------------|
----------------------------------------------------|
----------------------------------------------------|


--------------------0-----0-----0-----0-----0-------|
-----------------3-----3-----3-----3-----3-----3----|
----------------------------------------------------|
----------------------------------------------------|
----------------------------------------------------|
----------------------------------------------------|


-----------------------------0----------------------|
--1L----------1-----------3-----1L----1-----1L------|
-----------------0--0--0----------------------------|
----------------------------------------------------|
----------------------------------------------------|
----------------------------------------------------|


-----------------------------0----------------------|
--1L----------------1-----3-----------------1L------|
-----------------------0--------0L----0-------------|
----------------------------------------------------|
----------------------------------------------------|
----------------------------------------------------|


--------------------------0-----0-----0-----0-------|
--1L----------------1--1-----3-----3----------------|
----------------------------------------------------|
----------------------------------------------------|
----------------------------------------------------|
----------------------------------------------------|


--------------------------0-----0-----0-----0-------|
-----------------------1-----3-----3-----3-----3----|
----------------------------------------------------|
----------------------------------------------------|
----------------------------------------------------|
----------------------------------------------------|


-----------------------------0----------------------|
--1-----------------------3-----------------1L------|
--------------------0--0--------0L----0-------------|
----------------------------------------------------|
----------------------------------------------------|
----------------------------------------------------|


-----------------------------0----------------------|----------------|-------|
--1-----------------------3-----------------1L------|--1-------------|-------|
--------------------0--0--------0--------0----------|----------------|-------|
----------------------------------------------------|----------------|-------|
----------------------------------------------------|----------------|-------|
----------------------------------------------------|----------------|-------|


-----------------3--0-------------------------------|
-----------------------3--3--3--3--3--3-----1L------|
----------------------------------------------------|
----------------------------------------------------|
----------------------------------------------------|
----------------------------------------------------|


-----------------3--0-----------------0-------------|
--1L----------1--------3--3--3--3--1----------------|
----------------------------------------------------|
----------------------------------------------------|
----------------------------------------------------|
----------------------------------------------------|


-----------------3--0-------------------------------|
-----------------------3--3--3--3--3--3-----1--3----|
----------------------------------------------------|
----------------------------------------------------|
----------------------------------------------------|
----------------------------------------------------|


----------------------------------------------------|
--3--1--1L----1L------------------------------------|
----------------------------------------------------|
----------------------------------------------------|
----------------------------------------------------|
----------------------------------------------------|


-----------------------------0----------------------|
--1L----------1-----------3-----------3--3-----3L---|
-----------------0--0--0--------0--0----------------|
----------------------------------------------------|
----------------------------------------------------|
----------------------------------------------------|


--------0--------3--------------------0L------------|
--3-----------------3--3--3--1--3-------------------|
----------------------------------------------------|
----------------------------------------------------|
----------------------------------------------------|
----------------------------------------------------|


--0L----------0--3--0-------------------------------|
-----------------------3--3--3--3--3--3-----1--3----|
----------------------------------------------------|
----------------------------------------------------|
----------------------------------------------------|
----------------------------------------------------|


----------------------------------------------------|
--3--1--1L----1-------------------------------------|
----------------------------------------------------|
----------------------------------------------------|
----------------------------------------------------|
----------------------------------------------------|


-----------------------------0-----------0----------|
-----------------1--1--1--3-----1-----3-----1L------|
----------------------------------------------------|
----------------------------------------------------|
----------------------------------------------------|
----------------------------------------------------|


-----------------------------0-----------0----------|
--1L----------1--1--1--1--3-----1-----3-----3--1----|
----------------------------------------------------|
----------------------------------------------------|
----------------------------------------------------|
----------------------------------------------------|


--------------------0-----0-----0-----0-----0-------|
--3--------------1-----3-----3-----3----------------|
-----2L-------2-------------------------------------|
----------------------------------------------------|
----------------------------------------------------|
----------------------------------------------------|


--------------------0-----0-----0-----0-----0-------|
-----------------------3-----3-----3-----3-----3----|
----------------------------------------------------|
----------------------------------------------------|
----------------------------------------------------|
----------------------------------------------------|


-----------------------------0----------------------|
--1-----------------------3-----------------1L------|
--------------------0--0--------0L----0-------------|
----------------------------------------------------|
----------------------------------------------------|
----------------------------------------------------|


-----------------------------0----------------------|
--1-----------------------3-----------------1L------|
--------------------------------0L----0-------------|
----------------------------------------------------|
----------------------------------------------------|
----------------------------------------------------|


--------------------------0-----0-----0-----0-------|
--1L----------------1--1-----3-----3----------------|
----------------------------------------------------|
----------------------------------------------------|
----------------------------------------------------|
----------------------------------------------------|


--------------------------0-----0-----0-----0-------|
-----------------------------3-----3-----3-----3----|
----------------------------------------------------|
----------------------------------------------------|
----------------------------------------------------|
----------------------------------------------------|


-----------------------------0----------------------|
--1-----------------------3-----------------1L------|
--------------------0--0--------0L----0-------------|
----------------------------------------------------|
----------------------------------------------------|
----------------------------------------------------|


-----------------------------0----------------------|----------------||
--1-----------------------3-----------------1L------|--1-------------||
--------------------0--0--------0--------0----------|----------------||
----------------------------------------------------|----------------||
----------------------------------------------------|----------------||
----------------------------------------------------|----------------||


Recommended for you:


Click to rate this post!
[Total: 3 Average: 5]

To The Top Get The Guitar Tabs

See Also