Now Reading
ACTION HERO BIJU – Pookkal Panineer Tabs and Notes for Guitar and Piano

ACTION HERO BIJU – Pookkal Panineer Tabs and Notes for Guitar and Piano

Enable Light Mode
#
A+
A-

This song is from the movie Action Hero Biju(2016), released on 20 January 2016 starring Nivin Pauly & Anu Emmanuel. It is sung by K J Yesudas, Vani Jayaram. There’s something really appealing about this song. It might be because of listening to really old vocals in a new age production. The string in the background and the rhythm sounded real nice and made the song really interesting. The bells and the slight noise in the background made it sound even more authentic.It is originally in the key of C Minor. You can change it to any key you want, using the Transpose option. The average tempo is 98 BPM. These chords are simple and easy to play on the guitar or piano.
Vocals: K J Yesudas, Vani Jayaram,
Producer(s): Jerry Amal Dev,
Writer(s): Santhosh Varma,

 
Original Key: C Minor
Time Signature: 4/4
Tempo: 98
Suggested Strumming: DU,DU,DU,DU
c h o r d  z o n e . o r g
  

E |-------|----------------------------------------------------|
B |-------|--------1--------0--------3-------------------------|
G |-------|--0-------------------------------------------------|
D |-------|----------------------------------------------------|
A |-------|----------------------------------------------------|
E |-------|----------------------------------------------------|


----------------------------------------------------|
--------1--------0--------1-------------------------|
--0-------------------------------------------------|
----------------------------------------------------|
----------------------------------------------------|
----------------------------------------------------|


----------------------------------------------------|
--------1--------0--------3-------------------------|
--0-------------------------------------------------|
----------------------------------------------------|
----------------------------------------------------|
----------------------------------------------------|


----------------------------------------------------|
--------1--------0--------1-------------------------|
--0-------------------------------------------------|
----------------------------------------------------|
----------------------------------------------------|
----------------------------------------------------|


----------------------------------------------------|----------------|
--4-----------3-------------------------------------|--4--3----------|
--------------------------------0-----0--0----------|----------------|
----------------------------------------------------|----------------|
----------------------------------------------------|----------------|
----------------------------------------------------|----------------|


----------------------------------------------------|----------|
--4-----------3-----------1-----3--------0----------|--1-------|
----------------------------------------------------|----------|
----------------------------------------------------|----------|
----------------------------------------------------|----------|
----------------------------------------------------|----------|


----------------------------------------------------|----------------|
--4-----------3-------------------------------------|--4--3----------|
--------------------------------0-----0--0----------|----------------|
----------------------------------------------------|----------------|
----------------------------------------------------|----------------|
----------------------------------------------------|----------------|


----------------------------------------------------|----------|
--4-----------3-----------1-----3--------0----------|--1-------|
----------------------------------------------------|----------|
----------------------------------------------------|----------|
----------------------------------------------------|----------|
----------------------------------------------------|----------|


----------------------------------------------------|----------------|
--4-----------3-------------------------------------|--4--3----------|
--------------------------------0-----0--0----------|----------------|
----------------------------------------------------|----------------|
----------------------------------------------------|----------------|
----------------------------------------------------|----------------|


----------------------------------------------------|
--4-----------3-----------1-----3--------0----------|
----------------------------------------------------|
----------------------------------------------------|
----------------------------------------------------|
----------------------------------------------------|


--------------------------------0--------1----------|
--1-------------------------------------------------|
----------------------------------------------------|
----------------------------------------------------|
----------------------------------------------------|
----------------------------------------------------|


--3L----------------------3-----3-----6--5----------|
----------------------------------------------------|
----------------------------------------------------|
----------------------------------------------------|
----------------------------------------------------|
----------------------------------------------------|


--5-----3L----3-----------------0-----1--3-----0----|
----------------------------------------------------|
----------------------------------------------------|
----------------------------------------------------|
----------------------------------------------------|
----------------------------------------------------|


--1-------------------------------------------------|
--------------------------------4-----3--1--4-------|
----------------------------------------------------|
----------------------------------------------------|
----------------------------------------------------|
----------------------------------------------------|


--------------------------------0--------1----------|
--3L----------------------3-------------------------|
----------------------------------------------------|
----------------------------------------------------|
----------------------------------------------------|
----------------------------------------------------|


--3L----------------------3-----3-----6--5----------|
----------------------------------------------------|
----------------------------------------------------|
----------------------------------------------------|
----------------------------------------------------|
----------------------------------------------------|


--5-----3L----3-----------------0-----1--3--0-------|
----------------------------------------------------|
----------------------------------------------------|
----------------------------------------------------|
----------------------------------------------------|
----------------------------------------------------|


--1L----------------------1-------------------------|----------|
--------------------------------4-----3--1-----4----|--3-------|
----------------------------------------------------|----------|
----------------------------------------------------|----------|
----------------------------------------------------|----------|
----------------------------------------------------|----------|


----------------------------------------------------|----------------|
--4-----------3-------------------------------------|--4--3----------|
--------------------------------0-----0--0----------|----------------|
----------------------------------------------------|----------------|
----------------------------------------------------|----------------|
----------------------------------------------------|----------------|


----------------------------------------------------|-------|
--4-----------3-----------1-----3--------0----------|--1----|
----------------------------------------------------|-------|
----------------------------------------------------|-------|
----------------------------------------------------|-------|
----------------------------------------------------|-------|


----------------------------------------------------|----------------|
--4-----------3-------------------------------------|--4--3----------|
--------------------------------0-----0--0----------|----------------|
----------------------------------------------------|----------------|
----------------------------------------------------|----------------|
----------------------------------------------------|----------------|


----------------------------------------------------|-------||
--4-----------3-----------1-----3--------0----------|--1----||
----------------------------------------------------|-------||
----------------------------------------------------|-------||
----------------------------------------------------|-------||
----------------------------------------------------|-------||
 

Recommended for you:


Click to rate this post!
[Total: 0 Average: 0]

To The Top Get The Guitar Tabs

See Also